  0
SECTION
  2
HEADER
  9
$ACADVER
  1
AC1014
  9
$ACADMAINTVER
 70
     9
  9
$DWGCODEPAGE
  3
ANSI_932
  9
$INSBASE
 10
0.0
 20
0.0
 30
0.0
  9
$EXTMIN
 10
268.5580585763764
 20
500.7110699321038
 30
-0.0015258207003583
  9
$EXTMAX
 10
5629.295667765306
 20
2874.490364681103
 30
0.0000000349246037
  9
$LIMMIN
 10
0.0
 20
0.0
  9
$LIMMAX
 10
5940.0
 20
4200.0
  9
$ORTHOMODE
 70
     0
  9
$REGENMODE
 70
     1
  9
$FILLMODE
 70
     1
  9
$QTEXTMODE
 70
     0
  9
$MIRRTEXT
 70
     0
  9
$DRAGMODE
 70
     2
  9
$LTSCALE
 40
1.0
  9
$OSMODE
 70
    47
  9
$ATTMODE
 70
     1
  9
$TEXTSIZE
 40
2.5
  9
$TRACEWID
 40
1.0
  9
$TEXTSTYLE
  7
STANDARD
  9
$CLAYER
  8
STR
  9
$CELTYPE
  6
BYLAYER
  9
$CECOLOR
 62
   256
  9
$CELTSCALE
 40
1.0
  9
$DELOBJ
 70
     1
  9
$DISPSILH
 70
     0
  9
$DIMSCALE
 40
1.0
  9
$DIMASZ
 40
50.0
  9
$DIMEXO
 40
0.625
  9
$DIMDLI
 40
3.75
  9
$DIMRND
 40
0.0
  9
$DIMDLE
 40
0.0
  9
$DIMEXE
 40
1.25
  9
$DIMTP
 40
0.0
  9
$DIMTM
 40
0.0
  9
$DIMTXT
 40
60.0
  9
$DIMCEN
 40
2.5
  9
$DIMTSZ
 40
0.0
  9
$DIMTOL
 70
     0
  9
$DIMLIM
 70
     0
  9
$DIMTIH
 70
     0
  9
$DIMTOH
 70
     0
  9
$DIMSE1
 70
     0
  9
$DIMSE2
 70
     0
  9
$DIMTAD
 70
     1
  9
$DIMZIN
 70
     8
  9
$DIMBLK
  1
OPEN30
  9
$DIMASO
 70
     1
  9
$DIMSHO
 70
     1
  9
$DIMPOST
  1

  9
$DIMAPOST
  1

  9
$DIMALT
 70
     0
  9
$DIMALTD
 70
     3
  9
$DIMALTF
 40
0.03937007874016
  9
$DIMLFAC
 40
1.0
  9
$DIMTOFL
 70
     1
  9
$DIMTVP
 40
0.0
  9
$DIMTIX
 70
     0
  9
$DIMSOXD
 70
     0
  9
$DIMSAH
 70
     0
  9
$DIMBLK1
  1

  9
$DIMBLK2
  1

  9
$DIMSTYLE
  2
ISO-25-BRGK
  9
$DIMCLRD
 70
     0
  9
$DIMCLRE
 70
     0
  9
$DIMCLRT
 70
     0
  9
$DIMTFAC
 40
1.0
  9
$DIMGAP
 40
30.0
  9
$DIMJUST
 70
     0
  9
$DIMSD1
 70
     0
  9
$DIMSD2
 70
     0
  9
$DIMTOLJ
 70
     0
  9
$DIMTZIN
 70
     8
  9
$DIMALTZ
 70
     0
  9
$DIMALTTZ
 70
     0
  9
$DIMFIT
 70
     3
  9
$DIMUPT
 70
     0
  9
$DIMUNIT
 70
     2
  9
$DIMDEC
 70
     2
  9
$DIMTDEC
 70
     2
  9
$DIMALTU
 70
     2
  9
$DIMALTTD
 70
     3
  9
$DIMTXSTY
  7
STANDARD
  9
$DIMAUNIT
 70
     0
  9
$LUNITS
 70
     2
  9
$LUPREC
 70
     4
  9
$SKETCHINC
 40
1.0
  9
$FILLETRAD
 40
0.0
  9
$AUNITS
 70
     0
  9
$AUPREC
 70
     0
  9
$MENU
  1
.
  9
$ELEVATION
 40
0.0
  9
$PELEVATION
 40
0.0
  9
$THICKNESS
 40
0.0
  9
$LIMCHECK
 70
     0
  9
$BLIPMODE
 70
     0
  9
$CHAMFERA
 40
0.0
  9
$CHAMFERB
 40
0.0
  9
$CHAMFERC
 40
0.0
  9
$CHAMFERD
 40
0.0
  9
$SKPOLY
 70
     0
  9
$TDCREATE
 40
2453462.630621563
  9
$TDUPDATE
 40
2453465.555697696
  9
$TDINDWG
 40
0.1743637731
  9
$TDUSRTIMER
 40
0.1743635880
  9
$USRTIMER
 70
     1
  9
$ANGBASE
 50
0.0
  9
$ANGDIR
 70
     0
  9
$PDMODE
 70
     0
  9
$PDSIZE
 40
0.0
  9
$PLINEWID
 40
0.0
  9
$COORDS
 70
     1
  9
$SPLFRAME
 70
     0
  9
$SPLINETYPE
 70
     6
  9
$SPLINESEGS
 70
     8
  9
$ATTDIA
 70
     0
  9
$ATTREQ
 70
     1
  9
$HANDLING
 70
 22529
  9
$HANDSEED
  5
C72
  9
$SURFTAB1
 70
     6
  9
$SURFTAB2
 70
     6
  9
$SURFTYPE
 70
     6
  9
$SURFU
 70
     6
  9
$SURFV
 70
     6
  9
$UCSNAME
  2

  9
$UCSORG
 10
0.0
 20
0.0
 30
0.0
  9
$UCSXDIR
 10
1.0
 20
0.0
 30
0.0
  9
$UCSYDIR
 10
0.0
 20
1.0
 30
0.0
  9
$PUCSNAME
  2

  9
$PUCSORG
 10
0.0
 20
0.0
 30
0.0
  9
$PUCSXDIR
 10
1.0
 20
0.0
 30
0.0
  9
$PUCSYDIR
 10
0.0
 20
1.0
 30
0.0
  9
$USERI1
 70
     0
  9
$USERI2
 70
     0
  9
$USERI3
 70
     0
  9
$USERI4
 70
     0
  9
$USERI5
 70
     0
  9
$USERR1
 40
0.0
  9
$USERR2
 40
0.0
  9
$USERR3
 40
0.0
  9
$USERR4
 40
0.0
  9
$USERR5
 40
0.0
  9
$WORLDVIEW
 70
     1
  9
$SHADEDGE
 70
     3
  9
$SHADEDIF
 70
    70
  9
$TILEMODE
 70
     1
  9
$MAXACTVP
 70
    48
  9
$PINSBASE
 10
0.0
 20
0.0
 30
0.0
  9
$PLIMCHECK
 70
     0
  9
$PEXTMIN
 10
0.0
 20
0.0
 30
0.0
  9
$PEXTMAX
 10
0.0
 20
0.0
 30
0.0
  9
$PLIMMIN
 10
0.0
 20
0.0
  9
$PLIMMAX
 10
12.0
 20
9.0
  9
$UNITMODE
 70
     0
  9
$VISRETAIN
 70
     1
  9
$PLINEGEN
 70
     0
  9
$PSLTSCALE
 70
     1
  9
$TREEDEPTH
 70
  3020
  9
$PICKSTYLE
 70
     1
  9
$CMLSTYLE
  2
STANDARD
  9
$CMLJUST
 70
     0
  9
$CMLSCALE
 40
20.0
  9
$PROXYGRAPHICS
 70
     1
  9
$MEASUREMENT
 70
     1
  0
ENDSEC
  0
SECTION
  2
CLASSES
  0
CLASS
  1
ACDBDICTIONARYWDFLT
  2
AcDbDictionaryWithDefault
  3
AutoCAD 2000
 90
        0
280
     0
281
     0
  0
CLASS
  1
ACDBPLACEHOLDER
  2
AcDbPlaceHolder
  3
AutoCAD 2000
 90
        0
280
     0
281
     0
  0
CLASS
  1
LAYOUT
  2
AcDbLayout
  3
AutoCAD 2000
 90
        0
280
     0
281
     0
  0
CLASS
  1
DICTIONARYVAR
  2
AcDbDictionaryVar
  3
AutoCAD 2000
 90
        0
280
     0
281
     0
  0
CLASS
  1
DIMASSOC
  2
AcDbDimAssoc
  3
"AcDbDimAssoc|Product Desc:     AcDim ARX App For Dimension|Company:          Autodesk, Inc.|WEB Address:      www.autodesk.com"
 90
        0
280
     0
281
     0
  0
CLASS
  1
LONG_TRANSACTION
  2
AcDbLongTransaction
  3
AutoCAD 2000
 90
        0
280
     0
281
     0
  0
CLASS
  1
LWPOLYLINE
  2
AcDbPolyline
  3
AutoCAD 2000
 90
        0
280
     0
281
     1
  0
CLASS
  1
HATCH
  2
AcDbHatch
  3
AutoCAD 2000
 90
        0
280
     0
281
     1
  0
CLASS
  1
XRECORD
  2
AcDbXrecord
  3
AutoCAD 2000
 90
        0
280
     0
281
     0
  0
CLASS
  1
LONG_TRANSACTION
  2
AcDbLongTransaction
  3
AutoCAD 2000
 90
        0
280
     0
281
     0
  0
CLASS
  1
LWPOLYLINE
  2
AcDbPolyline
  3
AutoCAD 2000
 90
        0
280
     0
281
     1
  0
CLASS
  1
HATCH
  2
AcDbHatch
  3
AutoCAD 2000
 90
        0
280
     0
281
     1
  0
CLASS
  1
XRECORD
  2
AcDbXrecord
  3
AutoCAD 2000
 90
        0
280
     0
281
     0
  0
CLASS
  1
LONG_TRANSACTION
  2
AcDbLongTransaction
  3
AutoCAD 2000
 90
        0
280
     0
281
     0
  0
CLASS
  1
LWPOLYLINE
  2
AcDbPolyline
  3
AutoCAD 2000
 90
        0
280
     0
281
     1
  0
CLASS
  1
HATCH
  2
AcDbHatch
  3
AutoCAD 2000
 90
        0
280
     0
281
     1
  0
CLASS
  1
XRECORD
  2
AcDbXrecord
  3
AutoCAD 2000
 90
        0
280
     0
281
     0
  0
ENDSEC
  0
SECTION
  2
TABLES
  0
TABLE
  2
VPORT
  5
8
330
0
100
AcDbSymbolTable
 70
     2
  0
VPORT
  5
C4E
330
8
100
AcDbSymbolTableRecord
100
AcDbViewportTableRecord
  2
*ACTIVE
 70
     0
 10
0.0
 20
0.0
 11
1.0
 21
1.0
 12
2970.0
 22
2100.0
 13
0.0
 23
0.0
 14
10.0
 24
10.0
 15
10.0
 25
10.0
 16
0.0
 26
0.0
 36
1.0
 17
0.0
 27
0.0
 37
0.0
 40
4226.113989637306
 41
1.580912863070539
 42
50.0
 43
0.0
 44
0.0
 50
0.0
 51
0.0
 71
     0
 72
  1000
 73
     1
 74
     3
 75
     0
 76
     0
 77
     0
 78
     0
  0
ENDTAB
  0
TABLE
  2
LTYPE
  5
5
330
0
100
AcDbSymbolTable
 70
     3
  0
LTYPE
  5
14
330
5
100
AcDbSymbolTableRecord
100
AcDbLinetypeTableRecord
  2
BYBLOCK
 70
     0
  3

 72
    65
 73
     0
 40
0.0
  0
LTYPE
  5
15
330
5
100
AcDbSymbolTableRecord
100
AcDbLinetypeTableRecord
  2
BYLAYER
 70
     0
  3

 72
    65
 73
     0
 40
0.0
  0
LTYPE
  5
16
330
5
100
AcDbSymbolTableRecord
100
AcDbLinetypeTableRecord
  2
CONTINUOUS
 70
     0
  3
Solid line
 72
    65
 73
     0
 40
0.0
  0
LTYPE
  5
122
330
5
100
AcDbSymbolTableRecord
100
AcDbLinetypeTableRecord
  2
CENTER
 70
     0
  3
Center ____ _ ____ _ ____ _ ____ _ ____ _ ____
 72
    65
 73
     4
 40
50.8
 49
31.75
 74
     0
 49
-6.349999999999999
 74
     0
 49
6.349999999999999
 74
     0
 49
-6.349999999999999
 74
     0
  0
LTYPE
  5
123
330
5
100
AcDbSymbolTableRecord
100
AcDbLinetypeTableRecord
  2
HIDDEN
 70
     0
  3
Hidden __ __ __ __ __ __ __ __ __ __ __ __ __ _
 72
    65
 73
     2
 40
9.524999999999998
 49
6.349999999999999
 74
     0
 49
-3.174999999999999
 74
     0
  0
ENDTAB
  0
TABLE
  2
LAYER
  5
2
330
0
100
AcDbSymbolTable
 70
     4
  0
LAYER
  5
10
330
2
100
AcDbSymbolTableRecord
100
AcDbLayerTableRecord
  2
0
 70
     0
 62
     7
  6
CONTINUOUS
  0
LAYER
  5
124
330
2
100
AcDbSymbolTableRecord
100
AcDbLayerTableRecord
  2
STR
 70
     0
 62
     7
  6
CONTINUOUS
  0
LAYER
  5
125
330
2
100
AcDbSymbolTableRecord
100
AcDbLayerTableRecord
  2
BMK
 70
     0
 62
     1
  6
CENTER
  0
LAYER
  5
126
330
2
100
AcDbSymbolTableRecord
100
AcDbLayerTableRecord
  2
DEFPOINTS
 70
     0
 62
     7
  6
CONTINUOUS
  0
ENDTAB
  0
TABLE
  2
STYLE
  5
3
330
0
100
AcDbSymbolTable
 70
     1
  0
STYLE
  5
11
330
3
100
AcDbSymbolTableRecord
100
AcDbTextStyleTableRecord
  2
STANDARD
 70
     0
 40
0.0
 41
1.0
 50
0.0
 71
     0
 42
2.5
  3
txt.shx
  4
bigfont.shx
  0
ENDTAB
  0
TABLE
  2
VIEW
  5
6
330
0
100
AcDbSymbolTable
 70
     0
  0
ENDTAB
  0
TABLE
  2
UCS
  5
7
330
0
100
AcDbSymbolTable
 70
     0
  0
ENDTAB
  0
TABLE
  2
APPID
  5
9
330
0
100
AcDbSymbolTable
 70
     1
  0
APPID
  5
12
330
9
100
AcDbSymbolTableRecord
100
AcDbRegAppTableRecord
  2
ACAD
 70
     0
  0
ENDTAB
  0
TABLE
  2
DIMSTYLE
  5
A
330
0
100
AcDbSymbolTable
 70
     1
  0
DIMSTYLE
105
127
330
A
100
AcDbSymbolTableRecord
100
AcDbDimStyleTableRecord
  2
ISO-25-BRGK
 70
     0
  3

  4

  5
OPEN30
  6

  7

 40
1.0
 41
50.0
 42
0.625
 43
3.75
 44
1.25
 45
0.0
 46
0.0
 47
0.0
 48
0.0
140
60.0
141
2.5
142
0.0
143
0.03937007874016
144
1.0
145
0.0
146
1.0
147
30.0
 71
     0
 72
     0
 73
     0
 74
     0
 75
     0
 76
     0
 77
     1
 78
     8
170
     0
171
     3
172
     1
173
     0
174
     0
175
     0
176
     0
177
     0
178
     0
270
     2
271
     2
272
     2
273
     2
274
     3
340
11
275
     0
280
     0
281
     0
282
     0
283
     0
284
     8
285
     0
286
     0
287
     3
288
     0
  0
ENDTAB
  0
TABLE
  2
BLOCK_RECORD
  5
1
330
0
100
AcDbSymbolTable
 70
    13
  0
BLOCK_RECORD
  5
1F
102
{ACAD_XDICTIONARY
360
A73
102
}
330
1
100
AcDbSymbolTableRecord
100
AcDbBlockTableRecord
  2
*MODEL_SPACE
  0
BLOCK_RECORD
  5
A5A
102
{ACAD_XDICTIONARY
360
A75
102
}
330
1
100
AcDbSymbolTableRecord
100
AcDbBlockTableRecord
  2
*PAPER_SPACE
  0
BLOCK_RECORD
  5
9F
330
1
100
AcDbSymbolTableRecord
100
AcDbBlockTableRecord
  2
_OPEN30
  0
BLOCK_RECORD
  5
ED
330
1
100
AcDbSymbolTableRecord
100
AcDbBlockTableRecord
  2
_NONE
  0
BLOCK_RECORD
  5
313
330
1
100
AcDbSymbolTableRecord
100
AcDbBlockTableRecord
  2
*D2
  0
BLOCK_RECORD
  5
31F
330
1
100
AcDbSymbolTableRecord
100
AcDbBlockTableRecord
  2
*D3
  0
BLOCK_RECORD
  5
337
330
1
100
AcDbSymbolTableRecord
100
AcDbBlockTableRecord
  2
*D4
  0
BLOCK_RECORD
  5
345
330
1
100
AcDbSymbolTableRecord
100
AcDbBlockTableRecord
  2
*D5
  0
BLOCK_RECORD
  5
35A
330
1
100
AcDbSymbolTableRecord
100
AcDbBlockTableRecord
  2
*D6
  0
BLOCK_RECORD
  5
38A
330
1
100
AcDbSymbolTableRecord
100
AcDbBlockTableRecord
  2
*D7
  0
BLOCK_RECORD
  5
3AB
330
1
100
AcDbSymbolTableRecord
100
AcDbBlockTableRecord
  2
*D8
  0
BLOCK_RECORD
  5
824
330
1
100
AcDbSymbolTableRecord
100
AcDbBlockTableRecord
  2
*D9
  0
BLOCK_RECORD
  5
852
330
1
100
AcDbSymbolTableRecord
100
AcDbBlockTableRecord
  2
*D10
  0
BLOCK_RECORD
  5
86B
330
1
100
AcDbSymbolTableRecord
100
AcDbBlockTableRecord
  2
*D11
  0
BLOCK_RECORD
  5
883
330
1
100
AcDbSymbolTableRecord
100
AcDbBlockTableRecord
  2
*D12
  0
ENDTAB
  0
ENDSEC
  0
SECTION
  2
BLOCKS
  0
BLOCK
  5
20
330
1F
100
AcDbEntity
  8
0
100
AcDbBlockBegin
  2
*MODEL_SPACE
 70
     0
 10
0.0
 20
0.0
 30
0.0
  3
*MODEL_SPACE
  1

  0
ENDBLK
  5
21
330
1F
100
AcDbEntity
  8
0
100
AcDbBlockEnd
  0
BLOCK
  5
A5C
330
A5A
100
AcDbEntity
 67
     1
  8
0
100
AcDbBlockBegin
  2
*PAPER_SPACE
 70
     0
 10
0.0
 20
0.0
 30
0.0
  3
*PAPER_SPACE
  1

  0
ENDBLK
  5
A5D
330
A5A
100
AcDbEntity
 67
     1
  8
0
100
AcDbBlockEnd
  0
BLOCK
  5
A0
330
9F
100
AcDbEntity
  8
0
100
AcDbBlockBegin
  2
_OPEN30
 70
     0
 10
0.0
 20
0.0
 30
0.0
  3
_OPEN30
  1

  0
LINE
  5
A1
330
9F
100
AcDbEntity
  8
0
  6
BYBLOCK
 62
     0
100
AcDbLine
 10
-1.0
 20
0.26794919
 30
0.0
 11
0.0
 21
0.0
 31
0.0
  0
LINE
  5
A2
330
9F
100
AcDbEntity
  8
0
  6
BYBLOCK
 62
     0
100
AcDbLine
 10
0.0
 20
0.0
 30
0.0
 11
-1.0
 21
-0.26794919
 31
0.0
  0
LINE
  5
A3
330
9F
100
AcDbEntity
  8
0
  6
BYBLOCK
 62
     0
100
AcDbLine
 10
0.0
 20
0.0
 30
0.0
 11
-1.0
 21
0.0
 31
0.0
  0
ENDBLK
  5
A4
330
9F
100
AcDbEntity
  8
0
100
AcDbBlockEnd
  0
BLOCK
  5
EE
330
ED
100
AcDbEntity
  8
0
100
AcDbBlockBegin
  2
_NONE
 70
     0
 10
0.0
 20
0.0
 30
0.0
  3
_NONE
  1

  0
ENDBLK
  5
EF
330
ED
100
AcDbEntity
  8
0
100
AcDbBlockEnd
  0
BLOCK
  5
31D
330
313
100
AcDbEntity
  8
0
100
AcDbBlockBegin
  2
*D2
 70
     1
 10
0.0
 20
0.0
 30
0.0
  3
*D2
  1

  0
LINE
  5
A07
330
313
100
AcDbEntity
  8
STR
 62
     0
100
AcDbLine
 10
2679.605291959283
 20
2570.471073765767
 30
0.0
 11
2679.605291959283
 21
2686.293234412778
 31
0.0
  0
LINE
  5
A08
330
313
100
AcDbEntity
  8
STR
 62
     0
100
AcDbLine
 10
3409.605291959295
 20
2569.846073765766
 30
0.0
 11
3409.605291959295
 21
2686.293234412778
 31
0.0
  0
LINE
  5
A09
330
313
100
AcDbEntity
  8
STR
 62
     0
100
AcDbLine
 10
2729.605291959283
 20
2685.043234412777
 30
0.0
 11
3359.605291959296
 21
2685.043234412777
 31
0.0
  0
INSERT
  5
A0A
330
313
100
AcDbEntity
  8
STR
 62
     0
100
AcDbBlockReference
  2
_OPEN30
 10
2679.605291959283
 20
2685.043234412777
 30
0.0
 41
50.0
 42
50.0
 43
50.0
 50
180.0
  0
INSERT
  5
A0B
330
313
100
AcDbEntity
  8
STR
 62
     0
100
AcDbBlockReference
  2
_OPEN30
 10
3409.605291959295
 20
2685.043234412777
 30
0.0
 41
50.0
 42
50.0
 43
50.0
  0
MTEXT
  5
A0C
330
313
100
AcDbEntity
  8
STR
 62
     0
100
AcDbMText
 10
3044.605291959289
 20
2745.043234412777
 30
0.0
 40
60.0
 41
0.0
 71
     5
 72
     1
  1
730
1001
ACAD
1000
MTEXTBEGIN
1070
    73
1070
     1
1070
    44
1040
1.0
1070
    74
1070
     0
1000
MTEXTEND
  0
POINT
  5
A0D
330
313
100
AcDbEntity
  8
DEFPOINTS
 62
     0
100
AcDbPoint
 10
2679.605291959283
 20
2569.846073765766
 30
0.0
  0
POINT
  5
A0E
330
313
100
AcDbEntity
  8
DEFPOINTS
 62
     0
100
AcDbPoint
 10
3409.605291959295
 20
2569.221073765767
 30
0.0
  0
POINT
  5
A0F
330
313
100
AcDbEntity
  8
DEFPOINTS
 62
     0
100
AcDbPoint
 10
3409.605291959295
 20
2685.043234412777
 30
0.0
  0
ENDBLK
  5
31E
330
313
100
AcDbEntity
  8
0
100
AcDbBlockEnd
  0
BLOCK
  5
329
330
31F
100
AcDbEntity
  8
0
100
AcDbBlockBegin
  2
*D3
 70
     1
 10
0.0
 20
0.0
 30
0.0
  3
*D3
  1

  0
LINE
  5
9EC
330
31F
100
AcDbEntity
  8
STR
 62
     0
100
AcDbLine
 10
3570.827306629019
 20
979.521650688043
 30
0.0
 11
3538.10704384134
 21
979.521650688043
 31
0.0
  0
LINE
  5
9ED
330
31F
100
AcDbEntity
  8
STR
 62
     0
100
AcDbLine
 10
3570.827306629019
 20
1774.521650688043
 30
0.0
 11
3538.10704384134
 21
1774.521650688043
 31
0.0
  0
LINE
  5
9EE
330
31F
100
AcDbEntity
  8
STR
 62
     0
100
AcDbLine
 10
3539.35704384134
 20
1029.521650688043
 30
0.0
 11
3539.35704384134
 21
1724.521650688043
 31
0.0
  0
INSERT
  5
9EF
330
31F
100
AcDbEntity
  8
STR
 62
     0
100
AcDbBlockReference
  2
_OPEN30
 10
3539.35704384134
 20
979.521650688043
 30
0.0
 41
50.0
 42
50.0
 43
50.0
 50
270.0
  0
INSERT
  5
9F0
330
31F
100
AcDbEntity
  8
STR
 62
     0
100
AcDbBlockReference
  2
_OPEN30
 10
3539.35704384134
 20
1774.521650688043
 30
0.0
 41
50.0
 42
50.0
 43
50.0
 50
90.0
  0
MTEXT
  5
9F1
330
31F
100
AcDbEntity
  8
STR
 62
     0
100
AcDbMText
 10
3479.357043841339
 20
1377.021650688043
 30
0.0
 40
60.0
 41
0.0
 71
     5
 72
     1
  1
795
 11
0.0000000000000001
 21
1.0
 31
0.0
1001
ACAD
1000
MTEXTBEGIN
1070
    73
1070
     1
1070
    44
1040
1.0
1070
    74
1070
     0
1000
MTEXTEND
  0
POINT
  5
9F2
330
31F
100
AcDbEntity
  8
DEFPOINTS
 62
     0
100
AcDbPoint
 10
3571.452306629019
 20
979.521650688043
 30
0.0
  0
POINT
  5
9F3
330
31F
100
AcDbEntity
  8
DEFPOINTS
 62
     0
100
AcDbPoint
 10
3571.452306629019
 20
1774.521650688043
 30
0.0
  0
POINT
  5
9F4
330
31F
100
AcDbEntity
  8
DEFPOINTS
 62
     0
100
AcDbPoint
 10
3539.35704384134
 20
1774.521650688043
 30
0.0
  0
ENDBLK
  5
32A
330
31F
100
AcDbEntity
  8
0
100
AcDbBlockEnd
  0
BLOCK
  5
343
330
337
100
AcDbEntity
  8
0
100
AcDbBlockBegin
  2
*D4
 70
     1
 10
0.0
 20
0.0
 30
0.0
  3
*D4
  1

  0
LINE
  5
BA4
330
337
100
AcDbEntity
  8
STR
 62
     0
100
AcDbLine
 10
1334.605291959283
 20
1209.521650688043
 30
0.0
 11
1280.225208184954
 21
1209.521650688043
 31
0.0
  0
LINE
  5
BA5
330
337
100
AcDbEntity
  8
STR
 62
     0
100
AcDbLine
 10
1334.605291959283
 20
1234.521650688042
 30
0.0
 11
1280.225208184954
 21
1234.521650688042
 31
0.0
  0
LINE
  5
BA6
330
337
100
AcDbEntity
  8
STR
 62
     0
100
AcDbLine
 10
1281.475208184954
 20
1159.521650688043
 30
0.0
 11
1281.475208184954
 21
1109.521650688043
 31
0.0
  0
LINE
  5
BA7
330
337
100
AcDbEntity
  8
STR
 62
     0
100
AcDbLine
 10
1281.475208184954
 20
1284.521650688042
 30
0.0
 11
1281.475208184954
 21
1334.521650688042
 31
0.0
  0
MTEXT
  5
BA8
330
337
100
AcDbEntity
  8
STR
 62
     0
100
AcDbMText
 10
1221.475208184954
 20
1284.521650688042
 30
0.0
 40
60.0
 41
0.0
 71
     5
 72
     1
  1
25
 11
0.0000000000000001
 21
1.0
 31
0.0
1001
ACAD
1000
MTEXTBEGIN
1070
    73
1070
     1
1070
    44
1040
1.0
1070
    74
1070
     0
1000
MTEXTEND
  0
LINE
  5
BA9
330
337
100
AcDbEntity
  8
STR
 62
     0
100
AcDbLine
 10
1281.475208184954
 20
1209.521650688043
 30
0.0
 11
1281.475208184954
 21
1234.521650688042
 31
0.0
  0
INSERT
  5
BAA
330
337
100
AcDbEntity
  8
STR
 62
     0
100
AcDbBlockReference
  2
_OPEN30
 10
1281.475208184954
 20
1209.521650688043
 30
0.0
 41
50.0
 42
50.0
 43
50.0
 50
90.0
  0
INSERT
  5
BAB
330
337
100
AcDbEntity
  8
STR
 62
     0
100
AcDbBlockReference
  2
_OPEN30
 10
1281.475208184954
 20
1234.521650688042
 30
0.0
 41
50.0
 42
50.0
 43
50.0
 50
270.0
  0
POINT
  5
BAC
330
337
100
AcDbEntity
  8
DEFPOINTS
 62
     0
100
AcDbPoint
 10
1335.230291959283
 20
1209.521650688043
 30
0.0
  0
POINT
  5
BAD
330
337
100
AcDbEntity
  8
DEFPOINTS
 62
     0
100
AcDbPoint
 10
1335.230291959283
 20
1234.521650688042
 30
0.0
  0
POINT
  5
BAE
330
337
100
AcDbEntity
  8
DEFPOINTS
 62
     0
100
AcDbPoint
 10
1281.475208184954
 20
1234.521650688042
 30
0.0
  0
ENDBLK
  5
344
330
337
100
AcDbEntity
  8
0
100
AcDbBlockEnd
  0
BLOCK
  5
34F
330
345
100
AcDbEntity
  8
0
100
AcDbBlockBegin
  2
*D5
 70
     1
 10
0.0
 20
0.0
 30
0.0
  3
*D5
  1

  0
LINE
  5
A10
330
345
100
AcDbEntity
  8
STR
 62
     0
100
AcDbLine
 10
1333.980291959283
 20
979.521650688043
 30
0.0
 11
1279.600208184954
 21
979.5216506880432
 31
0.0
  0
LINE
  5
A11
330
345
100
AcDbEntity
  8
STR
 62
     0
100
AcDbLine
 10
1333.980291959283
 20
1209.521650688043
 30
0.0
 11
1279.600208184954
 21
1209.521650688043
 31
0.0
  0
LINE
  5
A12
330
345
100
AcDbEntity
  8
STR
 62
     0
100
AcDbLine
 10
1280.850208184954
 20
1029.521650688043
 30
0.0
 11
1280.850208184954
 21
1159.521650688043
 31
0.0
  0
INSERT
  5
A13
330
345
100
AcDbEntity
  8
STR
 62
     0
100
AcDbBlockReference
  2
_OPEN30
 10
1280.850208184954
 20
979.521650688043
 30
0.0
 41
50.0
 42
50.0
 43
50.0
 50
270.0
  0
INSERT
  5
A14
330
345
100
AcDbEntity
  8
STR
 62
     0
100
AcDbBlockReference
  2
_OPEN30
 10
1280.850208184954
 20
1209.521650688043
 30
0.0
 41
50.0
 42
50.0
 43
50.0
 50
90.0
  0
MTEXT
  5
A15
330
345
100
AcDbEntity
  8
STR
 62
     0
100
AcDbMText
 10
1220.850208184954
 20
1094.521650688043
 30
0.0
 40
60.0
 41
0.0
 71
     5
 72
     1
  1
230
 11
0.0000000000000001
 21
1.0
 31
0.0
1001
ACAD
1000
MTEXTBEGIN
1070
    73
1070
     1
1070
    44
1040
1.0
1070
    74
1070
     0
1000
MTEXTEND
  0
POINT
  5
A16
330
345
100
AcDbEntity
  8
DEFPOINTS
 62
     0
100
AcDbPoint
 10
1334.605291959283
 20
979.521650688043
 30
0.0
  0
POINT
  5
A17
330
345
100
AcDbEntity
  8
DEFPOINTS
 62
     0
100
AcDbPoint
 10
1334.605291959283
 20
1209.521650688043
 30
0.0
  0
POINT
  5
A18
330
345
100
AcDbEntity
  8
DEFPOINTS
 62
     0
100
AcDbPoint
 10
1280.850208184954
 20
1209.521650688043
 30
0.0
  0
ENDBLK
  5
350
330
345
100
AcDbEntity
  8
0
100
AcDbBlockEnd
  0
BLOCK
  5
364
330
35A
100
AcDbEntity
  8
0
100
AcDbBlockBegin
  2
*D6
 70
     1
 10
0.0
 20
0.0
 30
0.0
  3
*D6
  1

  0
LINE
  5
9FE
330
35A
100
AcDbEntity
  8
STR
 62
     0
100
AcDbLine
 10
1985.424436671239
 20
2174.521650688042
 30
0.0
 11
1984.799436671239
 21
2174.521650688042
 31
0.0
  0
LINE
  5
9FF
330
35A
100
AcDbEntity
  8
STR
 62
     0
100
AcDbLine
 10
1985.424436671239
 20
1374.521650688042
 30
0.0
 11
1984.799436671238
 21
1374.521650688042
 31
0.0
  0
LINE
  5
A00
330
35A
100
AcDbEntity
  8
STR
 62
     0
100
AcDbLine
 10
1986.049436671239
 20
2124.521650688043
 30
0.0
 11
1986.049436671239
 21
1424.521650688042
 31
0.0
  0
INSERT
  5
A01
330
35A
100
AcDbEntity
  8
STR
 62
     0
100
AcDbBlockReference
  2
_OPEN30
 10
1986.049436671239
 20
2174.521650688042
 30
0.0
 41
50.0
 42
50.0
 43
50.0
 50
90.0
  0
INSERT
  5
A02
330
35A
100
AcDbEntity
  8
STR
 62
     0
100
AcDbBlockReference
  2
_OPEN30
 10
1986.049436671239
 20
1374.521650688042
 30
0.0
 41
50.0
 42
50.0
 43
50.0
 50
270.0
  0
MTEXT
  5
A03
330
35A
100
AcDbEntity
  8
STR
 62
     0
100
AcDbMText
 10
1926.049436671238
 20
1774.521650688043
 30
0.0
 40
60.0
 41
0.0
 71
     5
 72
     1
  1
　
 11
0.0000000000000001
 21
1.0
 31
0.0
1001
ACAD
1000
MTEXTBEGIN
1070
    73
1070
     1
1070
    44
1040
1.0
1070
    74
1070
     0
1000
MTEXTEND
  0
POINT
  5
A04
330
35A
100
AcDbEntity
  8
DEFPOINTS
 62
     0
100
AcDbPoint
 10
1986.04943667124
 20
2174.521650688042
 30
0.0
  0
POINT
  5
A05
330
35A
100
AcDbEntity
  8
DEFPOINTS
 62
     0
100
AcDbPoint
 10
1986.049436671239
 20
1374.521650688042
 30
0.0
  0
POINT
  5
A06
330
35A
100
AcDbEntity
  8
DEFPOINTS
 62
     0
100
AcDbPoint
 10
1986.049436671239
 20
1374.521650688042
 30
0.0
  0
ENDBLK
  5
365
330
35A
100
AcDbEntity
  8
0
100
AcDbBlockEnd
  0
BLOCK
  5
394
330
38A
100
AcDbEntity
  8
0
100
AcDbBlockBegin
  2
*D7
 70
     1
 10
0.0
 20
0.0
 30
0.0
  3
*D7
  1

  0
LINE
  5
9F5
330
38A
100
AcDbEntity
  8
STR
 62
     0
100
AcDbLine
 10
1359.605291959283
 20
953.8966506880431
 30
0.0
 11
1359.605291959283
 21
737.3473366437217
 31
0.0
  0
LINE
  5
9F6
330
38A
100
AcDbEntity
  8
STR
 62
     0
100
AcDbLine
 10
3409.605291959283
 20
953.8966506880431
 30
0.0
 11
3409.605291959283
 21
737.3473366437217
 31
0.0
  0
LINE
  5
9F7
330
38A
100
AcDbEntity
  8
STR
 62
     0
100
AcDbLine
 10
1409.605291959283
 20
738.5973366437217
 30
0.0
 11
3359.605291959283
 21
738.5973366437217
 31
0.0
  0
INSERT
  5
9F8
330
38A
100
AcDbEntity
  8
STR
 62
     0
100
AcDbBlockReference
  2
_OPEN30
 10
1359.605291959283
 20
738.5973366437217
 30
0.0
 41
50.0
 42
50.0
 43
50.0
 50
180.0
  0
INSERT
  5
9F9
330
38A
100
AcDbEntity
  8
STR
 62
     0
100
AcDbBlockReference
  2
_OPEN30
 10
3409.605291959283
 20
738.5973366437217
 30
0.0
 41
50.0
 42
50.0
 43
50.0
  0
MTEXT
  5
9FA
330
38A
100
AcDbEntity
  8
STR
 62
     0
100
AcDbMText
 10
2384.605291959283
 20
798.5973366437217
 30
0.0
 40
60.0
 41
0.0
 71
     5
 72
     1
  1
2050
1001
ACAD
1000
MTEXTBEGIN
1070
    73
1070
     1
1070
    44
1040
1.0
1070
    74
1070
     0
1000
MTEXTEND
  0
POINT
  5
9FB
330
38A
100
AcDbEntity
  8
DEFPOINTS
 62
     0
100
AcDbPoint
 10
1359.605291959283
 20
954.521650688043
 30
0.0
  0
POINT
  5
9FC
330
38A
100
AcDbEntity
  8
DEFPOINTS
 62
     0
100
AcDbPoint
 10
3409.605291959283
 20
954.521650688043
 30
0.0
  0
POINT
  5
9FD
330
38A
100
AcDbEntity
  8
DEFPOINTS
 62
     0
100
AcDbPoint
 10
3409.605291959283
 20
738.5973366437217
 30
0.0
  0
ENDBLK
  5
395
330
38A
100
AcDbEntity
  8
0
100
AcDbBlockEnd
  0
BLOCK
  5
3B5
330
3AB
100
AcDbEntity
  8
0
100
AcDbBlockBegin
  2
*D8
 70
     1
 10
0.0
 20
0.0
 30
0.0
  3
*D8
  1

  0
LINE
  5
9E3
330
3AB
100
AcDbEntity
  8
STR
 62
     0
100
AcDbLine
 10
3360.230291959283
 20
2534.521650688043
 30
0.0
 11
3732.674321298756
 21
2534.521650688043
 31
0.0
  0
LINE
  5
9E4
330
3AB
100
AcDbEntity
  8
STR
 62
     0
100
AcDbLine
 10
3360.230291959283
 20
979.521650688043
 30
0.0
 11
3732.674321298756
 21
979.521650688043
 31
0.0
  0
LINE
  5
9E5
330
3AB
100
AcDbEntity
  8
STR
 62
     0
100
AcDbLine
 10
3731.424321298757
 20
2484.521650688043
 30
0.0
 11
3731.424321298757
 21
1029.521650688042
 31
0.0
  0
INSERT
  5
9E6
330
3AB
100
AcDbEntity
  8
STR
 62
     0
100
AcDbBlockReference
  2
_OPEN30
 10
3731.424321298757
 20
2534.521650688043
 30
0.0
 41
50.0
 42
50.0
 43
50.0
 50
90.0
  0
INSERT
  5
9E7
330
3AB
100
AcDbEntity
  8
STR
 62
     0
100
AcDbBlockReference
  2
_OPEN30
 10
3731.424321298756
 20
979.521650688043
 30
0.0
 41
50.0
 42
50.0
 43
50.0
 50
270.0
  0
MTEXT
  5
9E8
330
3AB
100
AcDbEntity
  8
STR
 62
     0
100
AcDbMText
 10
3671.424321298756
 20
1757.021650688043
 30
0.0
 40
60.0
 41
0.0
 71
     5
 72
     1
  1
1555
 11
0.0000000000000001
 21
1.0
 31
0.0
1001
ACAD
1000
MTEXTBEGIN
1070
    73
1070
     1
1070
    44
1040
1.0
1070
    74
1070
     0
1000
MTEXTEND
  0
POINT
  5
9E9
330
3AB
100
AcDbEntity
  8
DEFPOINTS
 62
     0
100
AcDbPoint
 10
3359.605291959283
 20
2534.521650688043
 30
0.0
  0
POINT
  5
9EA
330
3AB
100
AcDbEntity
  8
DEFPOINTS
 62
     0
100
AcDbPoint
 10
3359.605291959283
 20
979.521650688043
 30
0.0
  0
POINT
  5
9EB
330
3AB
100
AcDbEntity
  8
DEFPOINTS
 62
     0
100
AcDbPoint
 10
3731.424321298756
 20
979.521650688043
 30
0.0
  0
ENDBLK
  5
3B6
330
3AB
100
AcDbEntity
  8
0
100
AcDbBlockEnd
  0
BLOCK
  5
82E
330
824
100
AcDbEntity
  8
0
100
AcDbBlockBegin
  2
*D9
 70
     1
 10
0.0
 20
0.0
 30
0.0
  3
*D9
  1

  0
LINE
  5
9D8
330
824
100
AcDbEntity
  8
STR
 62
     0
100
AcDbLine
 10
5189.189150204069
 20
1701.88427737357
 30
0.0
 11
5189.189150204069
 21
1654.080864312851
 31
0.0
  0
LINE
  5
9D9
330
824
100
AcDbEntity
  8
STR
 62
     0
100
AcDbLine
 10
5339.189150204068
 20
1820.925010498049
 30
0.0
 11
5339.189150204068
 21
1654.080864312851
 31
0.0
  0
LINE
  5
9DA
330
824
100
AcDbEntity
  8
STR
 62
     0
100
AcDbLine
 10
5139.189150204069
 20
1655.330864312851
 30
0.0
 11
5089.189150204069
 21
1655.330864312851
 31
0.0
  0
LINE
  5
9DB
330
824
100
AcDbEntity
  8
STR
 62
     0
100
AcDbLine
 10
5389.189150204067
 20
1655.330864312851
 30
0.0
 11
5629.189150204068
 21
1655.330864312851
 31
0.0
  0
LINE
  5
9DC
330
824
100
AcDbEntity
  8
STR
 62
     0
100
AcDbLine
 10
5189.189150204069
 20
1655.330864312851
 30
0.0
 11
5339.189150204068
 21
1655.330864312851
 31
0.0
  0
INSERT
  5
9DD
330
824
100
AcDbEntity
  8
STR
 62
     0
100
AcDbBlockReference
  2
_OPEN30
 10
5189.189150204069
 20
1655.330864312851
 30
0.0
 41
50.0
 42
50.0
 43
50.0
  0
INSERT
  5
9DE
330
824
100
AcDbEntity
  8
STR
 62
     0
100
AcDbBlockReference
  2
_OPEN30
 10
5339.189150204068
 20
1655.330864312851
 30
0.0
 41
50.0
 42
50.0
 43
50.0
 50
180.0
  0
MTEXT
  5
9DF
330
824
100
AcDbEntity
  8
STR
 62
     0
100
AcDbMText
 10
5534.189150204068
 20
1715.330864312851
 30
0.0
 40
60.0
 41
0.0
 71
     5
 72
     1
  1
150
1001
ACAD
1000
MTEXTBEGIN
1070
    73
1070
     1
1070
    44
1040
1.0
1070
    74
1070
     0
1000
MTEXTEND
  0
POINT
  5
9E0
330
824
100
AcDbEntity
  8
DEFPOINTS
 62
     0
100
AcDbPoint
 10
5189.189150204069
 20
1702.50927737357
 30
0.0
  0
POINT
  5
9E1
330
824
100
AcDbEntity
  8
DEFPOINTS
 62
     0
100
AcDbPoint
 10
5339.189150204068
 20
1821.550010498048
 30
0.0
  0
POINT
  5
9E2
330
824
100
AcDbEntity
  8
DEFPOINTS
 62
     0
100
AcDbPoint
 10
5339.189150204068
 20
1655.330864312851
 30
0.0
  0
ENDBLK
  5
82F
330
824
100
AcDbEntity
  8
0
100
AcDbBlockEnd
  0
BLOCK
  5
85C
330
852
100
AcDbEntity
  8
0
100
AcDbBlockBegin
  2
*D10
 70
     1
 10
0.0
 20
0.0
 30
0.0
  3
*D10
  1

  0
LINE
  5
9CF
330
852
100
AcDbEntity
  8
STR
 62
     0
100
AcDbLine
 10
4139.189150204069
 20
2525.19821421861
 30
0.0
 11
4139.189150204069
 21
2785.654604612815
 31
0.0
  0
LINE
  5
9D0
330
852
100
AcDbEntity
  8
STR
 62
     0
100
AcDbLine
 10
5189.189150204069
 20
2525.19821421861
 30
0.0
 11
5189.189150204069
 21
2785.654604612815
 31
0.0
  0
LINE
  5
9D1
330
852
100
AcDbEntity
  8
STR
 62
     0
100
AcDbLine
 10
4189.189150204069
 20
2784.404604612815
 30
0.0
 11
5139.189150204069
 21
2784.404604612815
 31
0.0
  0
INSERT
  5
9D2
330
852
100
AcDbEntity
  8
STR
 62
     0
100
AcDbBlockReference
  2
_OPEN30
 10
4139.189150204069
 20
2784.404604612815
 30
0.0
 41
50.0
 42
50.0
 43
50.0
 50
180.0
  0
INSERT
  5
9D3
330
852
100
AcDbEntity
  8
STR
 62
     0
100
AcDbBlockReference
  2
_OPEN30
 10
5189.189150204069
 20
2784.404604612815
 30
0.0
 41
50.0
 42
50.0
 43
50.0
  0
MTEXT
  5
9D4
330
852
100
AcDbEntity
  8
STR
 62
     0
100
AcDbMText
 10
4664.189150204069
 20
2844.404604612815
 30
0.0
 40
60.0
 41
0.0
 71
     5
 72
     1
  1
1050
1001
ACAD
1000
MTEXTBEGIN
1070
    73
1070
     1
1070
    44
1040
1.0
1070
    74
1070
     0
1000
MTEXTEND
  0
POINT
  5
9D5
330
852
100
AcDbEntity
  8
DEFPOINTS
 62
     0
100
AcDbPoint
 10
4139.189150204069
 20
2524.57321421861
 30
0.0
  0
POINT
  5
9D6
330
852
100
AcDbEntity
  8
DEFPOINTS
 62
     0
100
AcDbPoint
 10
5189.189150204069
 20
2524.57321421861
 30
0.0
  0
POINT
  5
9D7
330
852
100
AcDbEntity
  8
DEFPOINTS
 62
     0
100
AcDbPoint
 10
5189.189150204069
 20
2784.404604612815
 30
0.0
  0
ENDBLK
  5
85D
330
852
100
AcDbEntity
  8
0
100
AcDbBlockEnd
  0
BLOCK
  5
875
330
86B
100
AcDbEntity
  8
0
100
AcDbBlockBegin
  2
*D11
 70
     1
 10
0.0
 20
0.0
 30
0.0
  3
*D11
  1

  0
LINE
  5
9C6
330
86B
100
AcDbEntity
  8
STR
 62
     0
100
AcDbLine
 10
4214.189150204069
 20
925.8983668282672
 30
0.0
 11
4214.189150204069
 21
745.6319263832738
 31
0.0
  0
LINE
  5
9C7
330
86B
100
AcDbEntity
  8
STR
 62
     0
100
AcDbLine
 10
5114.18915020407
 20
925.8983668282672
 30
0.0
 11
5114.18915020407
 21
745.6319263832738
 31
0.0
  0
LINE
  5
9C8
330
86B
100
AcDbEntity
  8
STR
 62
     0
100
AcDbLine
 10
4264.189150204069
 20
746.8819263832738
 30
0.0
 11
5064.18915020407
 21
746.8819263832738
 31
0.0
  0
INSERT
  5
9C9
330
86B
100
AcDbEntity
  8
STR
 62
     0
100
AcDbBlockReference
  2
_OPEN30
 10
4214.189150204069
 20
746.8819263832738
 30
0.0
 41
50.0
 42
50.0
 43
50.0
 50
180.0
  0
INSERT
  5
9CA
330
86B
100
AcDbEntity
  8
STR
 62
     0
100
AcDbBlockReference
  2
_OPEN30
 10
5114.18915020407
 20
746.8819263832738
 30
0.0
 41
50.0
 42
50.0
 43
50.0
  0
MTEXT
  5
9CB
330
86B
100
AcDbEntity
  8
STR
 62
     0
100
AcDbMText
 10
4664.189150204069
 20
806.8819263832738
 30
0.0
 40
60.0
 41
0.0
 71
     5
 72
     1
  1
900
1001
ACAD
1000
MTEXTBEGIN
1070
    73
1070
     1
1070
    44
1040
1.0
1070
    74
1070
     0
1000
MTEXTEND
  0
POINT
  5
9CC
330
86B
100
AcDbEntity
  8
DEFPOINTS
 62
     0
100
AcDbPoint
 10
4214.189150204069
 20
926.5233668282672
 30
0.0
  0
POINT
  5
9CD
330
86B
100
AcDbEntity
  8
DEFPOINTS
 62
     0
100
AcDbPoint
 10
5114.18915020407
 20
926.5233668282672
 30
0.0
  0
POINT
  5
9CE
330
86B
100
AcDbEntity
  8
DEFPOINTS
 62
     0
100
AcDbPoint
 10
5114.18915020407
 20
746.8819263832738
 30
0.0
  0
ENDBLK
  5
876
330
86B
100
AcDbEntity
  8
0
100
AcDbBlockEnd
  0
BLOCK
  5
88D
330
883
100
AcDbEntity
  8
0
100
AcDbBlockBegin
  2
*D12
 70
     1
 10
0.0
 20
0.0
 30
0.0
  3
*D12
  1

  0
LINE
  5
9BD
330
883
100
AcDbEntity
  8
STR
 62
     0
100
AcDbLine
 10
4164.189150204069
 20
925.8983668282672
 30
0.0
 11
4164.189150204069
 21
513.1094707926295
 31
0.0
  0
LINE
  5
9BE
330
883
100
AcDbEntity
  8
STR
 62
     0
100
AcDbLine
 10
5164.189150204068
 20
925.8983668282672
 30
0.0
 11
5164.189150204068
 21
513.1094707926295
 31
0.0
  0
LINE
  5
9BF
330
883
100
AcDbEntity
  8
STR
 62
     0
100
AcDbLine
 10
4214.189150204069
 20
514.3594707926295
 30
0.0
 11
5114.189150204068
 21
514.3594707926295
 31
0.0
  0
INSERT
  5
9C0
330
883
100
AcDbEntity
  8
STR
 62
     0
100
AcDbBlockReference
  2
_OPEN30
 10
4164.189150204069
 20
514.3594707926295
 30
0.0
 41
50.0
 42
50.0
 43
50.0
 50
180.0
  0
INSERT
  5
9C1
330
883
100
AcDbEntity
  8
STR
 62
     0
100
AcDbBlockReference
  2
_OPEN30
 10
5164.189150204068
 20
514.3594707926295
 30
0.0
 41
50.0
 42
50.0
 43
50.0
  0
MTEXT
  5
9C2
330
883
100
AcDbEntity
  8
STR
 62
     0
100
AcDbMText
 10
4664.189150204069
 20
574.3594707926295
 30
0.0
 40
60.0
 41
0.0
 71
     5
 72
     1
  1
1000
1001
ACAD
1000
MTEXTBEGIN
1070
    73
1070
     1
1070
    44
1040
1.0
1070
    74
1070
     0
1000
MTEXTEND
  0
POINT
  5
9C3
330
883
100
AcDbEntity
  8
DEFPOINTS
 62
     0
100
AcDbPoint
 10
4164.189150204069
 20
926.5233668282672
 30
0.0
  0
POINT
  5
9C4
330
883
100
AcDbEntity
  8
DEFPOINTS
 62
     0
100
AcDbPoint
 10
5164.189150204068
 20
926.5233668282672
 30
0.0
  0
POINT
  5
9C5
330
883
100
AcDbEntity
  8
DEFPOINTS
 62
     0
100
AcDbPoint
 10
5164.189150204068
 20
514.3594707926295
 30
0.0
  0
ENDBLK
  5
88E
330
883
100
AcDbEntity
  8
0
100
AcDbBlockEnd
  0
ENDSEC
  0
SECTION
  2
ENTITIES
  0
LINE
  5
224
330
1F
100
AcDbEntity
  8
STR
100
AcDbLine
 10
1843.502641604967
 20
2419.254878689474
 30
0.0
 11
2623.887284733051
 21
2419.254878689474
 31
0.0
1001
ACAD
1000
DSTYLE
1002
{
1070
     5
1000
NONE
1070
    77
1070
     0
1070
   147
1040
0.625
1002
}
  0
LINE
  5
225
330
1F
100
AcDbEntity
  8
STR
100
AcDbLine
 10
1984.799436671239
 20
2174.521650688042
 30
0.0
 11
1843.502641604967
 21
2419.254878689474
 31
0.0
1001
ACAD
1000
DSTYLE
1002
{
1070
     5
1000
NONE
1070
    77
1070
     0
1070
   147
1040
0.625
1002
}
  0
TEXT
  5
250
330
1F
100
AcDbEntity
  8
STR
100
AcDbText
 10
1882.545075470757
 20
2451.906073532328
 30
0.0
 40
60.0
  1
MAXφ800×800l
100
AcDbText
  0
LINE
  5
25B
330
1F
100
AcDbEntity
  8
STR
100
AcDbLine
 10
2444.605291959282
 20
1404.521650688042
 30
0.0
 11
2599.605291959282
 21
1404.521650688042
 31
0.0
  0
LINE
  5
25C
330
1F
100
AcDbEntity
  8
STR
100
AcDbLine
 10
2729.605291959283
 20
1379.521650688043
 30
0.0
 11
2779.605291959283
 21
1379.521650688044
 31
0.0
  0
LINE
  5
25D
330
1F
100
AcDbEntity
  8
STR
100
AcDbLine
 10
2629.605291959283
 20
2169.521650688043
 30
0.0
 11
2779.605291959283
 21
2169.521650688042
 31
0.0
  0
LINE
  5
25E
330
1F
100
AcDbEntity
  8
STR
100
AcDbLine
 10
2444.605291959283
 20
2144.521650688044
 30
0.0
 11
2599.605291959283
 21
2144.521650688042
 31
0.0
  0
LINE
  5
25F
330
1F
100
AcDbEntity
  8
STR
100
AcDbLine
 10
695.1616064853185
 20
1374.521650688043
 30
0.0
 11
2444.605291959282
 21
1374.521650688042
 31
0.0
  0
LINE
  5
260
330
1F
100
AcDbEntity
  8
STR
100
AcDbLine
 10
695.1616064853185
 20
2174.521650688043
 30
0.0
 11
2444.605291959283
 21
2174.521650688042
 31
0.0
  0
CIRCLE
  5
28B
330
1F
100
AcDbEntity
  8
STR
100
AcDbCircle
 10
481.0489834451582
 20
1954.095938063678
 30
0.0
 40
60.0
  0
LINE
  5
28C
330
1F
100
AcDbEntity
  8
BMK
  6
CENTER
100
AcDbLine
 10
384.3429892428457
 20
1954.095938063678
 30
0.0
 11
544.3429892428457
 21
1954.095938063678
 31
0.0
  0
LINE
  5
298
330
1F
100
AcDbEntity
  8
STR
100
AcDbLine
 10
571.0489834451585
 20
2154.521650688044
 30
0.0
 11
571.0489834451582
 21
1954.095938063678
 31
0.0
  0
LINE
  5
2A0
330
1F
100
AcDbEntity
  8
STR
  6
HIDDEN
100
AcDbLine
 10
3309.605291959281
 20
979.5216506880434
 30
0.0
 11
3309.605291959282
 21
1209.521650688043
 31
0.0
  0
LINE
  5
2B4
330
1F
100
AcDbEntity
  8
STR
100
AcDbLine
 10
2629.605291959283
 20
2204.521650688043
 30
0.0
 11
2629.605291959283
 21
1344.521650688043
 31
0.0
  0
LINE
  5
2DC
330
1F
100
AcDbEntity
  8
STR
100
AcDbLine
 10
3334.605291959283
 20
1209.521650688043
 30
0.0
 11
3334.605291959283
 21
979.5216506880434
 31
0.0
  0
LINE
  5
2DE
330
1F
100
AcDbEntity
  8
STR
100
AcDbLine
 10
2599.605291959283
 20
2189.521650688042
 30
0.0
 11
2629.605291959283
 21
2189.521650688042
 31
0.0
  0
LINE
  5
2DF
330
1F
100
AcDbEntity
  8
STR
100
AcDbLine
 10
2599.605291959283
 20
2189.521650688042
 30
0.0
 11
2599.605291959283
 21
2144.521650688042
 31
0.0
  0
LINE
  5
2E1
330
1F
100
AcDbEntity
  8
STR
100
AcDbLine
 10
2599.605291959282
 20
1404.521650688042
 30
0.0
 11
2599.605291959282
 21
1359.521650688044
 31
0.0
  0
LINE
  5
2E3
330
1F
100
AcDbEntity
  8
STR
100
AcDbLine
 10
2444.605291959282
 20
1654.521650688043
 30
0.0
 11
2599.605291959283
 21
1654.521650688043
 31
0.0
  0
LINE
  5
2E4
330
1F
100
AcDbEntity
  8
STR
100
AcDbLine
 10
2444.605291959282
 20
1894.521650688043
 30
0.0
 11
2599.605291959282
 21
1894.521650688043
 31
0.0
  0
LINE
  5
2E6
330
1F
100
AcDbEntity
  8
STR
100
AcDbLine
 10
2414.605291959283
 20
2174.521650688042
 30
0.0
 11
2414.605291959283
 21
1374.521650688042
 31
0.0
  0
LINE
  5
2E7
330
1F
100
AcDbEntity
  8
STR
100
AcDbLine
 10
2444.605291959283
 20
2174.521650688043
 30
0.0
 11
2444.605291959282
 21
1374.521650688042
 31
0.0
  0
LINE
  5
2E9
330
1F
100
AcDbEntity
  8
STR
100
AcDbLine
 10
2599.605291959282
 20
1894.521650688043
 30
0.0
 11
2599.605291959283
 21
1654.521650688043
 31
0.0
  0
LINE
  5
2EC
330
1F
100
AcDbEntity
  8
STR
100
AcDbLine
 10
3033.605291959283
 20
1259.521650688042
 30
0.0
 11
3033.605291959282
 21
2224.521650688043
 31
0.0
  0
LINE
  5
2EF
330
1F
100
AcDbEntity
  8
STR
100
AcDbLine
 10
2809.605291959285
 20
1259.521650688042
 30
0.0
 11
2809.605291959283
 21
2224.521650688043
 31
0.0
  0
LINE
  5
2F2
330
1F
100
AcDbEntity
  8
STR
100
AcDbLine
 10
3003.605291959285
 20
1259.521650688042
 30
0.0
 11
3003.605291959282
 21
2224.521650688043
 31
0.0
  0
LINE
  5
2F3
330
1F
100
AcDbEntity
  8
STR
100
AcDbLine
 10
2779.605291959283
 20
1259.521650688042
 30
0.0
 11
2779.605291959283
 21
2224.521650688043
 31
0.0
  0
LINE
  5
2F5
330
1F
100
AcDbEntity
  8
STR
100
AcDbLine
 10
2679.605291959282
 20
2189.521650688042
 30
0.0
 11
2729.605291959283
 21
2189.521650688042
 31
0.0
  0
LINE
  5
2F7
330
1F
100
AcDbEntity
  8
STR
100
AcDbLine
 10
2629.605291959283
 20
2204.521650688043
 30
0.0
 11
2679.605291959282
 21
2204.521650688043
 31
0.0
  0
LINE
  5
2F8
330
1F
100
AcDbEntity
  8
STR
100
AcDbLine
 10
2779.605291959283
 20
1999.521650688042
 30
0.0
 11
2779.605291959283
 21
1549.521650688044
 31
0.0
  0
LINE
  5
2F9
330
1F
100
AcDbEntity
  8
STR
100
AcDbLine
 10
2729.605291959284
 20
2189.521650688042
 30
0.0
 11
2729.605291959282
 21
1359.521650688044
 31
0.0
  0
LINE
  5
2FA
330
1F
100
AcDbEntity
  8
STR
100
AcDbLine
 10
2679.605291959283
 20
2204.521650688043
 30
0.0
 11
2679.605291959283
 21
1344.521650688043
 31
0.0
  0
LINE
  5
2FC
330
1F
100
AcDbEntity
  8
STR
100
AcDbLine
 10
1359.605291959283
 20
1209.521650688043
 30
0.0
 11
3334.605291959283
 21
1209.521650688043
 31
0.0
  0
LINE
  5
311
330
1F
100
AcDbEntity
  8
STR
100
AcDbLine
 10
1359.605291959283
 20
1209.521650688043
 30
0.0
 11
1359.605291959283
 21
979.5216506880434
 31
0.0
  0
LINE
  5
312
330
1F
100
AcDbEntity
  8
STR
100
AcDbLine
 10
1359.605291959283
 20
979.5216506880434
 30
0.0
 11
3334.605291959283
 21
979.5216506880434
 31
0.0
  0
LINE
  5
665
330
1F
100
AcDbEntity
  8
STR
100
AcDbLine
 10
3225.405721051363
 20
1234.521650688042
 30
0.0
 11
3225.405721051362
 21
2224.521650688044
 31
0.0
  0
LINE
  5
666
330
1F
100
AcDbEntity
  8
STR
100
AcDbLine
 10
3409.605291959296
 20
1894.521650688043
 30
0.0
 11
3409.605291959295
 21
1654.521650688042
 31
0.0
  0
LINE
  5
667
330
1F
100
AcDbEntity
  8
BMK
100
AcDbLine
 10
5584.435304422632
 20
1774.521650688043
 30
0.0
 11
268.9431199154078
 21
1774.521650688043
 31
0.0
  0
LINE
  5
674
330
1F
100
AcDbEntity
  8
STR
100
AcDbLine
 10
3359.605291959296
 20
1894.521650688043
 30
0.0
 11
3359.605291959296
 21
1654.521650688042
 31
0.0
  0
LINE
  5
680
330
1F
100
AcDbEntity
  8
STR
100
AcDbLine
 10
2679.605291959282
 20
1234.521650688042
 30
0.0
 11
3278.240330408161
 21
1234.521650688042
 31
0.0
  0
LINE
  5
684
330
1F
100
AcDbEntity
  8
STR
100
AcDbLine
 10
2749.605291959284
 20
1259.521650688042
 30
0.0
 11
3083.605291959282
 21
1259.521650688042
 31
0.0
  0
LINE
  5
691
330
1F
100
AcDbEntity
  8
STR
100
AcDbLine
 10
4879.189150204069
 20
2274.521650688043
 30
0.0
 11
4879.189150204069
 21
2224.521650688043
 31
0.0
  0
LINE
  5
692
330
1F
100
AcDbEntity
  8
STR
100
AcDbLine
 10
4449.189150204069
 20
2274.521650688043
 30
0.0
 11
4449.189150204069
 21
2224.521650688044
 31
0.0
  0
LINE
  5
693
330
1F
100
AcDbEntity
  8
STR
100
AcDbLine
 10
4414.189150204069
 20
2274.521650688044
 30
0.0
 11
4914.189150204069
 21
2274.521650688044
 31
0.0
  0
LINE
  5
694
330
1F
100
AcDbEntity
  8
STR
100
AcDbLine
 10
4414.189150204069
 20
2484.521650688042
 30
0.0
 11
4914.189150204069
 21
2484.521650688042
 31
0.0
  0
LINE
  5
695
330
1F
100
AcDbEntity
  8
STR
100
AcDbLine
 10
4914.189150204069
 20
2484.521650688042
 30
0.0
 11
4914.189150204069
 21
2274.521650688044
 31
0.0
  0
LINE
  5
696
330
1F
100
AcDbEntity
  8
STR
100
AcDbLine
 10
4414.189150204068
 20
2484.521650688042
 30
0.0
 11
4414.189150204069
 21
2274.521650688044
 31
0.0
  0
LINE
  5
697
330
1F
100
AcDbEntity
  8
STR
100
AcDbLine
 10
4859.189150204069
 20
2534.521650688043
 30
0.0
 11
4859.189150204069
 21
2464.521650688043
 31
0.0
  0
LINE
  5
698
330
1F
100
AcDbEntity
  8
STR
100
AcDbLine
 10
4469.189150204068
 20
2534.521650688043
 30
0.0
 11
4469.189150204068
 21
2464.521650688043
 31
0.0
  0
LINE
  5
6A6
330
1F
100
AcDbEntity
  8
STR
100
AcDbLine
 10
3334.605291959283
 20
1209.521650688043
 30
0.0
 11
3410.230291959283
 21
1094.521650688043
 31
0.0
  0
LINE
  5
6A7
330
1F
100
AcDbEntity
  8
STR
100
AcDbLine
 10
3410.230291959283
 20
1094.521650688043
 30
0.0
 11
3334.605291959283
 21
979.5216506880434
 31
0.0
  0
LINE
  5
6B7
330
1F
100
AcDbEntity
  8
STR
100
AcDbLine
 10
1359.605291959283
 20
1169.521650688043
 30
0.0
 11
3278.240330408162
 21
1169.521650688043
 31
0.0
  0
LINE
  5
6B8
330
1F
100
AcDbEntity
  8
STR
100
AcDbLine
 10
2067.689331421115
 20
1109.521650688043
 30
0.0
 11
3278.240330408161
 21
1109.521650688043
 31
0.0
  0
LINE
  5
6B9
330
1F
100
AcDbEntity
  8
STR
100
AcDbLine
 10
2317.947473675558
 20
1049.521650688043
 30
0.0
 11
3278.240330408162
 21
1049.521650688043
 31
0.0
  0
LINE
  5
6BA
330
1F
100
AcDbEntity
  8
STR
100
AcDbLine
 10
1359.605291959283
 20
1019.521650688043
 30
0.0
 11
3278.240330408162
 21
1019.521650688043
 31
0.0
  0
LINE
  5
6BB
330
1F
100
AcDbEntity
  8
STR
100
AcDbLine
 10
2067.689331421115
 20
1209.521650688043
 30
0.0
 11
2067.689331421115
 21
1109.521650688043
 31
0.0
  0
LINE
  5
6BC
330
1F
100
AcDbEntity
  8
STR
100
AcDbLine
 10
2679.605291959282
 20
1234.521650688042
 30
0.0
 11
2679.605291959282
 21
1077.136636484735
 31
0.0
  0
LINE
  5
6BE
330
1F
100
AcDbEntity
  8
STR
100
AcDbLine
 10
2317.947473675558
 20
1169.521650688043
 30
0.0
 11
2317.947473675558
 21
1049.521650688043
 31
0.0
  0
LINE
  5
6BF
330
1F
100
AcDbEntity
  8
STR
100
AcDbLine
 10
2679.605291959282
 20
1077.136636484735
 30
0.0
 11
3278.240330408161
 21
1077.136636484735
 31
0.0
  0
LINE
  5
6C0
330
1F
100
AcDbEntity
  8
STR
100
AcDbLine
 10
3278.240330408161
 20
979.5216506880434
 30
0.0
 11
3278.240330408161
 21
1324.521650688042
 31
0.0
  0
LINE
  5
6C5
330
1F
100
AcDbEntity
  8
STR
100
AcDbLine
 10
2749.605291959284
 20
1234.521650688042
 30
0.0
 11
2749.605291959284
 21
1259.521650688042
 31
0.0
  0
LINE
  5
6C6
330
1F
100
AcDbEntity
  8
STR
100
AcDbLine
 10
3083.605291959283
 20
1234.521650688042
 30
0.0
 11
3083.605291959282
 21
1259.521650688042
 31
0.0
  0
LINE
  5
6C7
330
1F
100
AcDbEntity
  8
STR
100
AcDbLine
 10
2134.618831640414
 20
1169.521650688043
 30
0.0
 11
2134.618831640414
 21
1066.576987007096
 31
0.0
  0
LINE
  5
6C8
330
1F
100
AcDbEntity
  8
STR
100
AcDbLine
 10
2134.618831640414
 20
1066.576987007096
 30
0.0
 11
2234.618831640414
 21
1066.576987007096
 31
0.0
  0
LINE
  5
6C9
330
1F
100
AcDbEntity
  8
STR
100
AcDbLine
 10
2234.618831640414
 20
1066.576987007096
 30
0.0
 11
2234.618831640414
 21
1169.521650688043
 31
0.0
  0
LINE
  5
6CA
330
1F
100
AcDbEntity
  8
STR
100
AcDbLine
 10
2779.605291959283
 20
2224.521650688043
 30
0.0
 11
3225.405721051362
 21
2224.521650688043
 31
0.0
  0
LINE
  5
6CB
330
1F
100
AcDbEntity
  8
BMK
100
AcDbLine
 10
4664.189150204069
 20
2671.112622874936
 30
0.0
 11
4664.189150204069
 21
893.6854987846164
 31
0.0
  0
LINE
  5
6CE
330
1F
100
AcDbEntity
  8
STR
100
AcDbLine
 10
3033.605291959283
 20
1894.521650688043
 30
0.0
 11
3409.605291959295
 21
1894.521650688043
 31
0.0
  0
LINE
  5
6CF
330
1F
100
AcDbEntity
  8
STR
100
AcDbLine
 10
3033.605291959283
 20
1654.521650688043
 30
0.0
 11
3409.605291959295
 21
1654.521650688042
 31
0.0
  0
LINE
  5
6D0
330
1F
100
AcDbEntity
  8
STR
100
AcDbLine
 10
4214.189150204069
 20
2034.204239573144
 30
0.0
 11
4214.189150204069
 21
1019.521650688043
 31
0.0
  0
LINE
  5
6D1
330
1F
100
AcDbEntity
  8
STR
100
AcDbLine
 10
5114.189150204069
 20
2034.204239573144
 30
0.0
 11
5114.18915020407
 21
1019.521650688043
 31
0.0
  0
LINE
  5
6D2
330
1F
100
AcDbEntity
  8
STR
100
AcDbLine
 10
4404.506561318968
 20
2224.521650688043
 30
0.0
 11
4923.871739089172
 21
2224.521650688043
 31
0.0
  0
CIRCLE
  5
6D5
330
1F
100
AcDbEntity
  8
STR
100
AcDbCircle
 10
4664.189150204069
 20
1774.521650688043
 30
0.0
 40
130.0
  0
CIRCLE
  5
6D7
330
1F
100
AcDbEntity
  8
STR
100
AcDbCircle
 10
4664.189150204069
 20
1774.521650688043
 30
0.0
 40
100.0
  0
LINE
  5
6D8
330
1F
100
AcDbEntity
  8
STR
100
AcDbLine
 10
4139.189150204069
 20
1904.521650688043
 30
0.0
 11
4139.189150204069
 21
1644.521650688043
 31
0.0
  0
LINE
  5
6D9
330
1F
100
AcDbEntity
  8
STR
100
AcDbLine
 10
5189.189150204069
 20
1876.550010498049
 30
0.0
 11
5189.189150204069
 21
1528.468544249092
 31
0.0
  0
LINE
  5
6DA
330
1F
100
AcDbEntity
  8
STR
100
AcDbLine
 10
4664.189150204069
 20
1904.521650688043
 30
0.0
 11
4139.189150204069
 21
1904.521650688043
 31
0.0
  0
LINE
  5
6DB
330
1F
100
AcDbEntity
  8
STR
100
AcDbLine
 10
4664.189150204069
 20
1644.521650688043
 30
0.0
 11
4139.189150204069
 21
1644.521650688043
 31
0.0
  0
LINE
  5
6EE
330
1F
100
AcDbEntity
  8
STR
100
AcDbLine
 10
2629.605291959283
 20
1344.521650688043
 30
0.0
 11
2679.605291959282
 21
1344.521650688043
 31
0.0
  0
LINE
  5
6EF
330
1F
100
AcDbEntity
  8
STR
100
AcDbLine
 10
2679.605291959282
 20
1359.521650688044
 30
0.0
 11
2729.605291959283
 21
1359.521650688044
 31
0.0
  0
LINE
  5
6F0
330
1F
100
AcDbEntity
  8
STR
100
AcDbLine
 10
2599.605291959283
 20
1359.521650688044
 30
0.0
 11
2629.605291959283
 21
1359.521650688044
 31
0.0
  0
LINE
  5
6F1
330
1F
100
AcDbEntity
  8
STR
100
AcDbLine
 10
2629.605291959282
 20
1379.521650688043
 30
0.0
 11
2779.605291959283
 21
1379.521650688044
 31
0.0
  0
CIRCLE
  5
6F5
330
1F
100
AcDbEntity
  8
STR
100
AcDbCircle
 10
4316.030025204069
 20
1774.521650688043
 30
0.0
 40
101.840875
  0
LINE
  5
6F7
330
1F
100
AcDbEntity
  8
STR
100
AcDbLine
 10
4417.870900204069
 20
1876.550010498049
 30
0.0
 11
4214.189150204069
 21
1876.550010498049
 31
0.0
  0
LINE
  5
6F8
330
1F
100
AcDbEntity
  8
STR
100
AcDbLine
 10
4417.870900204069
 20
1672.493290878036
 30
0.0
 11
4214.189150204069
 21
1672.493290878036
 31
0.0
  0
LINE
  5
6F9
330
1F
100
AcDbEntity
  8
STR
100
AcDbLine
 10
4417.870900204069
 20
1672.493290878035
 30
0.0
 11
4273.846153575124
 21
1528.468544249092
 31
0.0
  0
CIRCLE
  5
6FA
330
1F
100
AcDbEntity
  8
STR
100
AcDbCircle
 10
4418.003471984593
 20
1528.335972468567
 30
0.0
 40
101.840875
  0
LINE
  5
6FB
330
1F
100
AcDbEntity
  8
STR
100
AcDbLine
 10
4562.160790394062
 20
1528.203400688041
 30
0.0
 11
4418.136043765119
 21
1384.178654059098
 31
0.0
  0
LINE
  5
6FC
330
1F
100
AcDbEntity
  8
STR
100
AcDbLine
 10
4562.160790394062
 20
1528.203400688042
 30
0.0
 11
4562.160790394062
 21
1324.521650688042
 31
0.0
  0
CIRCLE
  5
6FD
330
1F
100
AcDbEntity
  8
STR
100
AcDbCircle
 10
4664.189150204069
 20
1426.362525688042
 30
0.0
 40
101.840875
  0
LINE
  5
6FE
330
1F
100
AcDbEntity
  8
STR
100
AcDbLine
 10
4766.217510014075
 20
1528.203400688042
 30
0.0
 11
4766.217510014075
 21
1324.521650688042
 31
0.0
  0
LINE
  5
6FF
330
1F
100
AcDbEntity
  8
STR
100
AcDbLine
 10
4766.217510014075
 20
1528.203400688042
 30
0.0
 11
4910.242256643019
 21
1384.178654059099
 31
0.0
  0
CIRCLE
  5
700
330
1F
100
AcDbEntity
  8
STR
100
AcDbCircle
 10
4910.374828423544
 20
1528.335972468566
 30
0.0
 40
101.840875
  0
LINE
  5
701
330
1F
100
AcDbEntity
  8
STR
100
AcDbLine
 10
4910.507400204069
 20
1672.493290878035
 30
0.0
 11
5054.532146833012
 21
1528.468544249092
 31
0.0
  0
LINE
  5
702
330
1F
100
AcDbEntity
  8
STR
100
AcDbLine
 10
4910.507400204069
 20
1672.493290878035
 30
0.0
 11
5114.189150204069
 21
1672.493290878035
 31
0.0
  0
CIRCLE
  5
703
330
1F
100
AcDbEntity
  8
STR
100
AcDbCircle
 10
5012.34827520407
 20
1774.521650688042
 30
0.0
 40
101.840875
  0
LINE
  5
704
330
1F
100
AcDbEntity
  8
STR
100
AcDbLine
 10
4910.507400204069
 20
1876.550010498049
 30
0.0
 11
5114.189150204069
 21
1876.550010498049
 31
0.0
  0
LINE
  5
705
330
1F
100
AcDbEntity
  8
STR
100
AcDbLine
 10
4910.507400204069
 20
1876.550010498049
 30
0.0
 11
5054.532146833013
 21
2020.574757126992
 31
0.0
  0
CIRCLE
  5
706
330
1F
100
AcDbEntity
  8
STR
100
AcDbCircle
 10
4910.374828423544
 20
2020.707328907517
 30
0.0
 40
101.840875
  0
LINE
  5
707
330
1F
100
AcDbEntity
  8
STR
100
AcDbLine
 10
4766.217510014075
 20
2020.839900688042
 30
0.0
 11
4910.242256643019
 21
2164.864647316985
 31
0.0
  0
LINE
  5
708
330
1F
100
AcDbEntity
  8
STR
100
AcDbLine
 10
4766.217510014075
 20
2020.839900688043
 30
0.0
 11
4766.217510014075
 21
2224.521650688042
 31
0.0
  0
CIRCLE
  5
709
330
1F
100
AcDbEntity
  8
STR
100
AcDbCircle
 10
4664.189150204069
 20
2122.680775688043
 30
0.0
 40
101.840875
  0
LINE
  5
70A
330
1F
100
AcDbEntity
  8
STR
100
AcDbLine
 10
4562.160790394062
 20
2020.839900688043
 30
0.0
 11
4562.160790394062
 21
2224.521650688043
 31
0.0
  0
LINE
  5
70B
330
1F
100
AcDbEntity
  8
STR
100
AcDbLine
 10
4562.160790394062
 20
2020.839900688043
 30
0.0
 11
4418.136043765119
 21
2164.864647316986
 31
0.0
  0
CIRCLE
  5
70C
330
1F
100
AcDbEntity
  8
STR
100
AcDbCircle
 10
4418.003471984594
 20
2020.707328907519
 30
0.0
 40
101.840875
  0
LINE
  5
70D
330
1F
100
AcDbEntity
  8
STR
100
AcDbLine
 10
4417.870900204069
 20
1876.55001049805
 30
0.0
 11
4273.846153575125
 21
2020.574757126993
 31
0.0
  0
LINE
  5
70E
330
1F
100
AcDbEntity
  8
STR
100
AcDbLine
 10
4273.846153575125
 20
2020.574757126993
 30
0.0
 11
4418.136043765119
 21
2164.864647316986
 31
0.0
  0
LINE
  5
70F
330
1F
100
AcDbEntity
  8
BMK
100
AcDbLine
 10
4316.049447634301
 20
2122.661353257811
 30
0.0
 11
4513.641661688309
 21
1925.069139203804
 31
0.0
  0
LINE
  5
711
330
1F
100
AcDbEntity
  8
BMK
100
AcDbLine
 10
4316.0494476343
 20
1426.381948118276
 30
0.0
 11
4513.641661688307
 21
1623.974162172283
 31
0.0
  0
LINE
  5
712
330
1F
100
AcDbEntity
  8
STR
100
AcDbLine
 10
4418.136043765119
 20
1384.178654059099
 30
0.0
 11
4273.846153575124
 21
1528.468544249093
 31
0.0
  0
LINE
  5
713
330
1F
100
AcDbEntity
  8
BMK
100
AcDbLine
 10
5012.328852773836
 20
1426.381948118274
 30
0.0
 11
4814.736638719828
 21
1623.974162172281
 31
0.0
  0
LINE
  5
714
330
1F
100
AcDbEntity
  8
STR
100
AcDbLine
 10
5054.532146833012
 20
1528.468544249091
 30
0.0
 11
4910.242256643019
 21
1384.178654059098
 31
0.0
  0
LINE
  5
715
330
1F
100
AcDbEntity
  8
BMK
100
AcDbLine
 10
5012.328852773838
 20
2122.661353257809
 30
0.0
 11
4814.736638719831
 21
1925.069139203802
 31
0.0
  0
LINE
  5
716
330
1F
100
AcDbEntity
  8
STR
100
AcDbLine
 10
4910.242256643019
 20
2164.864647316985
 30
0.0
 11
5054.532146833013
 21
2020.574757126991
 31
0.0
  0
LINE
  5
717
330
1F
100
AcDbEntity
  8
STR
100
AcDbLine
 10
4404.506561318969
 20
2224.521650688044
 30
0.0
 11
4214.189150204068
 21
2034.204239573144
 31
0.0
  0
LINE
  5
71A
330
1F
100
AcDbEntity
  8
STR
100
AcDbLine
 10
5114.18915020407
 20
2034.204239573144
 30
0.0
 11
4923.871739089172
 21
2224.521650688043
 31
0.0
  0
LINE
  5
71B
330
1F
100
AcDbEntity
  8
STR
100
AcDbLine
 10
4562.160790394062
 20
1324.521650688042
 30
0.0
 11
4766.217510014075
 21
1324.521650688042
 31
0.0
  0
LINE
  5
71D
330
1F
100
AcDbEntity
  8
STR
100
AcDbLine
 10
5114.189150204069
 20
1876.550010498049
 30
0.0
 11
5189.189150204069
 21
1876.550010498049
 31
0.0
  0
LINE
  5
71E
330
1F
100
AcDbEntity
  8
STR
100
AcDbLine
 10
5114.189150204069
 20
1528.468544249091
 30
0.0
 11
5189.189150204069
 21
1528.468544249091
 31
0.0
  0
LINE
  5
72B
330
1F
100
AcDbEntity
  8
STR
100
AcDbLine
 10
5289.189150204068
 20
2036.550010498049
 30
0.0
 11
5289.189150204068
 21
2156.550010498049
 31
0.0
  0
LINE
  5
72C
330
1F
100
AcDbEntity
  8
STR
100
AcDbLine
 10
5189.189150204069
 20
2036.550010498049
 30
0.0
 11
5189.189150204069
 21
2156.550010498049
 31
0.0
  0
LINE
  5
72D
330
1F
100
AcDbEntity
  8
STR
100
AcDbLine
 10
5289.189150204067
 20
2156.550010498049
 30
0.0
 11
5189.189150204069
 21
2156.550010498048
 31
0.0
  0
LINE
  5
72E
330
1F
100
AcDbEntity
  8
STR
100
AcDbLine
 10
5314.189150204068
 20
2036.550010498049
 30
0.0
 11
5164.189150204069
 21
2036.550010498049
 31
0.0
  0
LINE
  5
72F
330
1F
100
AcDbEntity
  8
STR
100
AcDbLine
 10
5314.189150204068
 20
1876.550010498048
 30
0.0
 11
5314.189150204068
 21
2036.550010498049
 31
0.0
  0
LINE
  5
730
330
1F
100
AcDbEntity
  8
STR
100
AcDbLine
 10
5164.189150204069
 20
1876.550010498049
 30
0.0
 11
5164.189150204069
 21
2036.550010498049
 31
0.0
  0
LINE
  5
731
330
1F
100
AcDbEntity
  8
STR
100
AcDbLine
 10
5339.189150204069
 20
1821.550010498048
 30
0.0
 11
5339.189150204068
 21
1876.550010498048
 31
0.0
  0
LINE
  5
732
330
1F
100
AcDbEntity
  8
STR
100
AcDbLine
 10
5189.189150204069
 20
1821.550010498048
 30
0.0
 11
5339.189150204068
 21
1821.550010498048
 31
0.0
  0
LINE
  5
733
330
1F
100
AcDbEntity
  8
STR
100
AcDbLine
 10
5189.189150204069
 20
1876.550010498049
 30
0.0
 11
5339.189150204068
 21
1876.550010498048
 31
0.0
  0
LINE
  5
734
330
1F
100
AcDbEntity
  8
STR
100
AcDbLine
 10
4214.189150204069
 20
1019.521650688043
 30
0.0
 11
5114.189150204069
 21
1019.521650688043
 31
0.0
  0
LINE
  5
735
330
1F
100
AcDbEntity
  8
STR
100
AcDbLine
 10
4164.189150204069
 20
1234.521650688042
 30
0.0
 11
5164.189150204068
 21
1234.521650688042
 31
0.0
  0
LINE
  5
736
330
1F
100
AcDbEntity
  8
STR
100
AcDbLine
 10
3278.240330408161
 20
1324.521650688042
 30
0.0
 11
3033.605291959283
 21
1324.521650688042
 31
0.0
  0
LINE
  5
737
330
1F
100
AcDbEntity
  8
STR
100
AcDbLine
 10
4264.189150204069
 20
1324.521650688041
 30
0.0
 11
4264.189150204069
 21
1234.521650688042
 31
0.0
  0
LINE
  5
738
330
1F
100
AcDbEntity
  8
STR
100
AcDbLine
 10
5064.18915020407
 20
1324.52165068804
 30
0.0
 11
5064.18915020407
 21
1234.521650688042
 31
0.0
  0
LINE
  5
739
330
1F
100
AcDbEntity
  8
BMK
100
AcDbLine
 10
4464.189150204069
 20
1354.521650688041
 30
0.0
 11
4464.189150204069
 21
1112.021650688042
 31
0.0
  0
LINE
  5
73A
330
1F
100
AcDbEntity
  8
BMK
100
AcDbLine
 10
4864.189150204068
 20
1354.521650688041
 30
0.0
 11
4864.189150204069
 21
1112.021650688043
 31
0.0
  0
LINE
  5
73B
330
1F
100
AcDbEntity
  8
STR
100
AcDbLine
 10
4214.189150204069
 20
1324.521650688041
 30
0.0
 11
4264.189150204069
 21
1324.521650688041
 31
0.0
  0
LINE
  5
73C
330
1F
100
AcDbEntity
  8
STR
100
AcDbLine
 10
4439.189150204069
 20
1324.521650688041
 30
0.0
 11
4439.189150204069
 21
1284.521650688042
 31
0.0
  0
LINE
  5
73D
330
1F
100
AcDbEntity
  8
STR
100
AcDbLine
 10
4489.189150204069
 20
1324.521650688041
 30
0.0
 11
4489.189150204069
 21
1284.521650688042
 31
0.0
  0
LINE
  5
73E
330
1F
100
AcDbEntity
  8
STR
100
AcDbLine
 10
4889.189150204069
 20
1324.521650688041
 30
0.0
 11
4889.189150204069
 21
1284.521650688042
 31
0.0
  0
LINE
  5
73F
330
1F
100
AcDbEntity
  8
STR
100
AcDbLine
 10
4839.189150204068
 20
1324.521650688041
 30
0.0
 11
4839.189150204068
 21
1284.521650688042
 31
0.0
  0
LINE
  5
740
330
1F
100
AcDbEntity
  8
STR
100
AcDbLine
 10
5064.18915020407
 20
1324.52165068804
 30
0.0
 11
5114.18915020407
 21
1324.52165068804
 31
0.0
  0
LINE
  5
741
330
1F
100
AcDbEntity
  8
STR
100
AcDbLine
 10
4839.189150204069
 20
1324.521650688041
 30
0.0
 11
4889.189150204069
 21
1324.521650688041
 31
0.0
  0
LINE
  5
742
330
1F
100
AcDbEntity
  8
STR
100
AcDbLine
 10
4439.189150204069
 20
1324.521650688041
 30
0.0
 11
4489.189150204069
 21
1324.521650688041
 31
0.0
  0
LINE
  5
744
330
1F
100
AcDbEntity
  8
STR
100
AcDbLine
 10
4264.189150204069
 20
1284.521650688042
 30
0.0
 11
5064.18915020407
 21
1284.521650688042
 31
0.0
  0
LINE
  5
745
330
1F
100
AcDbEntity
  8
STR
100
AcDbLine
 10
4514.189150204069
 20
1184.521650688042
 30
0.0
 11
4514.189150204069
 21
1134.521650688042
 31
0.0
  0
LINE
  5
746
330
1F
100
AcDbEntity
  8
STR
100
AcDbLine
 10
4814.189150204068
 20
1184.521650688042
 30
0.0
 11
4814.189150204069
 21
1134.521650688042
 31
0.0
  0
LINE
  5
747
330
1F
100
AcDbEntity
  8
STR
100
AcDbLine
 10
4214.189150204069
 20
1184.521650688042
 30
0.0
 11
5114.18915020407
 21
1184.521650688042
 31
0.0
  0
LINE
  5
748
330
1F
100
AcDbEntity
  8
STR
100
AcDbLine
 10
4514.189150204069
 20
1134.521650688043
 30
0.0
 11
4814.189150204068
 21
1134.521650688042
 31
0.0
  0
LINE
  5
74A
330
1F
100
AcDbEntity
  8
STR
100
AcDbLine
 10
4514.189150204069
 20
1039.521650688043
 30
0.0
 11
4814.189150204069
 21
1039.521650688043
 31
0.0
  0
LINE
  5
74B
330
1F
100
AcDbEntity
  8
STR
100
AcDbLine
 10
4514.189150204069
 20
1089.521650688043
 30
0.0
 11
4814.189150204069
 21
1089.521650688043
 31
0.0
  0
LINE
  5
74C
330
1F
100
AcDbEntity
  8
STR
100
AcDbLine
 10
4514.189150204069
 20
1089.521650688043
 30
0.0
 11
4514.189150204069
 21
1039.521650688043
 31
0.0
  0
LINE
  5
74D
330
1F
100
AcDbEntity
  8
STR
100
AcDbLine
 10
4814.189150204068
 20
1089.521650688043
 30
0.0
 11
4814.189150204069
 21
1039.521650688043
 31
0.0
  0
LINE
  5
74F
330
1F
100
AcDbEntity
  8
STR
100
AcDbLine
 10
5164.189150204068
 20
1112.021650688042
 30
0.0
 11
5114.189150204071
 21
1112.021650688043
 31
0.0
  0
LINE
  5
750
330
1F
100
AcDbEntity
  8
STR
100
AcDbLine
 10
5164.189150204068
 20
1234.521650688042
 30
0.0
 11
5164.189150204068
 21
1112.021650688042
 31
0.0
  0
LINE
  5
751
330
1F
100
AcDbEntity
  8
STR
100
AcDbLine
 10
4164.189150204067
 20
1234.521650688042
 30
0.0
 11
4164.189150204069
 21
1112.021650688042
 31
0.0
  0
LINE
  5
752
330
1F
100
AcDbEntity
  8
STR
100
AcDbLine
 10
4214.189150204068
 20
1112.021650688042
 30
0.0
 11
4164.189150204069
 21
1112.021650688042
 31
0.0
  0
LINE
  5
753
330
1F
100
AcDbEntity
  8
STR
100
AcDbLine
 10
695.1616064853185
 20
2174.521650688043
 30
0.0
 11
695.1616064853185
 21
1374.521650688042
 31
0.0
  0
LINE
  5
75E
330
1F
100
AcDbEntity
  8
STR
100
AcDbLine
 10
595.1616064853188
 20
2224.521650688042
 30
0.0
 11
595.1616064853182
 21
1324.521650688043
 31
0.0
  0
LINE
  5
75F
330
1F
100
AcDbEntity
  8
STR
100
AcDbLine
 10
391.0489834451577
 20
2224.521650688042
 30
0.0
 11
391.0489834451577
 21
1324.521650688043
 31
0.0
  0
LINE
  5
762
330
1F
100
AcDbEntity
  8
STR
100
AcDbLine
 10
595.1616064853188
 20
2224.521650688043
 30
0.0
 11
391.0489834451577
 21
2224.521650688042
 31
0.0
  0
LINE
  5
763
330
1F
100
AcDbEntity
  8
STR
100
AcDbLine
 10
595.1616064853188
 20
1324.521650688043
 30
0.0
 11
391.0489834451577
 21
1324.521650688043
 31
0.0
  0
LINE
  5
764
330
1F
100
AcDbEntity
  8
STR
100
AcDbLine
 10
695.1616064853185
 20
2154.521650688043
 30
0.0
 11
571.0489834451586
 21
2154.521650688043
 31
0.0
  0
LINE
  5
765
330
1F
100
AcDbEntity
  8
STR
100
AcDbLine
 10
695.1616064853185
 20
1394.521650688043
 30
0.0
 11
571.0489834451586
 21
1394.521650688043
 31
0.0
  0
ARC
  5
769
330
1F
100
AcDbEntity
  8
STR
100
AcDbCircle
 10
391.0489834451577
 20
2194.521650688043
 30
0.0
 40
30.0
100
AcDbArc
 50
90.0
 51
270.0
  0
ARC
  5
774
330
1F
100
AcDbEntity
  8
STR
100
AcDbCircle
 10
391.0489834451577
 20
2134.521650688043
 30
0.0
 40
30.0
100
AcDbArc
 50
90.0
 51
270.0
  0
ARC
  5
775
330
1F
100
AcDbEntity
  8
STR
100
AcDbCircle
 10
391.0489834451577
 20
2074.521650688043
 30
0.0
 40
30.0
100
AcDbArc
 50
90.0
 51
270.0
  0
ARC
  5
776
330
1F
100
AcDbEntity
  8
STR
100
AcDbCircle
 10
391.0489834451577
 20
2014.521650688043
 30
0.0
 40
30.0
100
AcDbArc
 50
90.0
 51
270.0
  0
ARC
  5
777
330
1F
100
AcDbEntity
  8
STR
100
AcDbCircle
 10
391.0489834451577
 20
1954.521650688043
 30
0.0
 40
30.0
100
AcDbArc
 50
90.0
 51
270.0
  0
ARC
  5
778
330
1F
100
AcDbEntity
  8
STR
100
AcDbCircle
 10
421.0489834451577
 20
2224.521650688042
 30
0.0
 40
30.0
100
AcDbArc
 50
0.0
 51
180.0
  0
ARC
  5
779
330
1F
100
AcDbEntity
  8
STR
100
AcDbCircle
 10
481.0489834451582
 20
2224.521650688042
 30
0.0
 40
30.0
100
AcDbArc
 50
0.0
 51
180.0
  0
LINE
  5
77A
330
1F
100
AcDbEntity
  8
STR
100
AcDbLine
 10
511.0489834451582
 20
2224.521650688042
 30
0.0
 11
571.0489834451585
 21
2154.521650688044
 31
0.0
  0
LINE
  5
77B
330
1F
100
AcDbEntity
  8
BMK
100
AcDbLine
 10
481.0489834451582
 20
2310.703158088419
 30
0.0
 11
481.0489834451577
 21
1238.084420320632
 31
0.0
  0
ARC
  5
789
330
1F
100
AcDbEntity
  8
STR
100
AcDbCircle
 10
481.0489834451582
 20
1954.095938063678
 30
0.0
 40
90.00000000000012
100
AcDbArc
 50
180.0
 51
359.9999999999997
  0
ARC
  5
78A
330
1F
100
AcDbEntity
  8
STR
100
AcDbCircle
 10
481.0489834451582
 20
1594.947363312408
 30
0.0
 40
90.00000000000012
100
AcDbArc
 50
0.0000000000002176
 51
180.0
  0
LINE
  5
78B
330
1F
100
AcDbEntity
  8
STR
100
AcDbLine
 10
511.0489834451582
 20
1324.521650688044
 30
0.0
 11
571.0489834451586
 21
1394.521650688043
 31
0.0
  0
ARC
  5
78C
330
1F
100
AcDbEntity
  8
STR
100
AcDbCircle
 10
481.0489834451582
 20
1324.521650688044
 30
0.0
 40
30.0
100
AcDbArc
 50
180.0
 51
0.0
  0
ARC
  5
78D
330
1F
100
AcDbEntity
  8
STR
100
AcDbCircle
 10
421.0489834451577
 20
1324.521650688044
 30
0.0
 40
30.0
100
AcDbArc
 50
180.0
 51
0.0
  0
ARC
  5
78E
330
1F
100
AcDbEntity
  8
STR
100
AcDbCircle
 10
391.0489834451577
 20
1594.521650688043
 30
0.0
 40
30.0
100
AcDbArc
 50
90.00000000000003
 51
270.0
  0
ARC
  5
78F
330
1F
100
AcDbEntity
  8
STR
100
AcDbCircle
 10
391.0489834451577
 20
1534.521650688043
 30
0.0
 40
30.0
100
AcDbArc
 50
90.00000000000003
 51
270.0
  0
ARC
  5
790
330
1F
100
AcDbEntity
  8
STR
100
AcDbCircle
 10
391.0489834451577
 20
1474.521650688043
 30
0.0
 40
30.0
100
AcDbArc
 50
90.00000000000003
 51
270.0
  0
ARC
  5
791
330
1F
100
AcDbEntity
  8
STR
100
AcDbCircle
 10
391.0489834451577
 20
1414.521650688043
 30
0.0
 40
30.0
100
AcDbArc
 50
90.00000000000003
 51
270.0
  0
ARC
  5
792
330
1F
100
AcDbEntity
  8
STR
100
AcDbCircle
 10
391.0489834451577
 20
1354.521650688043
 30
0.0
 40
30.0
100
AcDbArc
 50
90.00000000000003
 51
270.0
  0
LINE
  5
793
330
1F
100
AcDbEntity
  8
STR
100
AcDbLine
 10
571.0489834451586
 20
1394.521650688043
 30
0.0
 11
571.0489834451582
 21
1594.947363312408
 31
0.0
  0
LINE
  5
794
330
1F
100
AcDbEntity
  8
BMK
  6
CENTER
100
AcDbLine
 10
384.3429892428457
 20
1594.947363312408
 30
0.0
 11
544.3429892428457
 21
1594.947363312408
 31
0.0
  0
CIRCLE
  5
795
330
1F
100
AcDbEntity
  8
STR
100
AcDbCircle
 10
481.0489834451582
 20
1594.947363312408
 30
0.0
 40
60.0
  0
LINE
  5
796
330
1F
100
AcDbEntity
  8
STR
100
AcDbLine
 10
2069.883449222301
 20
1574.521650688043
 30
0.0
 11
1069.8834492223
 21
1574.521650688043
 31
0.0
  0
LINE
  5
797
330
1F
100
AcDbEntity
  8
STR
100
AcDbLine
 10
2069.883449222301
 20
1974.521650688043
 30
0.0
 11
1069.8834492223
 21
1974.521650688043
 31
0.0
  0
LINE
  5
7AA
330
1F
100
AcDbEntity
  8
STR
100
AcDbLine
 10
1569.883449222301
 20
2174.521650688042
 30
0.0
 11
1569.883449222301
 21
1374.521650688042
 31
0.0
  0
LINE
  5
7AB
330
1F
100
AcDbEntity
  8
STR
100
AcDbLine
 10
1069.8834492223
 20
1974.521650688043
 30
0.0
 11
1069.8834492223
 21
1574.521650688043
 31
0.0
  0
LINE
  5
7AC
330
1F
100
AcDbEntity
  8
STR
100
AcDbLine
 10
2069.883449222301
 20
1974.521650688044
 30
0.0
 11
2069.883449222301
 21
1574.521650688043
 31
0.0
  0
TEXT
  5
7AD
330
1F
100
AcDbEntity
  8
STR
100
AcDbText
 10
737.4565325897997
 20
2451.906073532328
 30
0.0
 40
60.0
  1
ﾊﾞﾘｱﾋﾟｯﾄ
100
AcDbText
  0
LINE
  5
7AE
330
1F
100
AcDbEntity
  8
STR
100
AcDbLine
 10
520.4343696451799
 20
2130.182907718229
 30
0.0
 11
698.4140987240098
 21
2419.254878689474
 31
0.0
1001
ACAD
1000
DSTYLE
1002
{
1070
     5
1000
NONE
1070
    77
1070
     0
1070
   147
1040
0.625
1002
}
  0
LINE
  5
7AF
330
1F
100
AcDbEntity
  8
STR
100
AcDbLine
 10
698.4140987240098
 20
2419.254878689474
 30
0.0
 11
1027.078487245466
 21
2419.254878689474
 31
0.0
1001
ACAD
1000
DSTYLE
1002
{
1070
     5
1000
NONE
1070
    77
1070
     0
1070
   147
1040
0.625
1002
}
  0
LINE
  5
7B0
330
1F
100
AcDbEntity
  8
STR
100
AcDbLine
 10
2871.055399232303
 20
2534.521650688043
 30
0.0
 11
2871.055399232303
 21
2464.521650688043
 31
0.0
  0
LINE
  5
7B1
330
1F
100
AcDbEntity
  8
STR
100
AcDbLine
 10
2941.055399232303
 20
2534.521650688043
 30
0.0
 11
2941.055399232302
 21
2464.521650688043
 31
0.0
  0
LINE
  5
7B2
330
1F
100
AcDbEntity
  8
STR
100
AcDbLine
 10
2841.055399232303
 20
2484.521650688042
 30
0.0
 11
2841.055399232303
 21
2274.521650688044
 31
0.0
  0
LINE
  5
7B3
330
1F
100
AcDbEntity
  8
STR
100
AcDbLine
 10
2971.055399232303
 20
2484.521650688042
 30
0.0
 11
2971.055399232302
 21
2274.521650688044
 31
0.0
  0
LINE
  5
7B4
330
1F
100
AcDbEntity
  8
STR
100
AcDbLine
 10
2841.055399232303
 20
2484.521650688042
 30
0.0
 11
2971.055399232303
 21
2484.521650688042
 31
0.0
  0
LINE
  5
7B5
330
1F
100
AcDbEntity
  8
STR
100
AcDbLine
 10
2841.055399232303
 20
2274.521650688044
 30
0.0
 11
2971.055399232302
 21
2274.521650688044
 31
0.0
  0
LINE
  5
7B6
330
1F
100
AcDbEntity
  8
STR
100
AcDbLine
 10
2871.055399232303
 20
2274.521650688043
 30
0.0
 11
2871.055399232303
 21
2224.521650688044
 31
0.0
  0
LINE
  5
7B7
330
1F
100
AcDbEntity
  8
STR
100
AcDbLine
 10
2941.055399232302
 20
2274.521650688043
 30
0.0
 11
2941.055399232302
 21
2224.521650688043
 31
0.0
  0
LINE
  5
7C1
330
1F
100
AcDbEntity
  8
BMK
100
AcDbLine
 10
4239.189150204069
 20
1354.521650688041
 30
0.0
 11
4239.189150204069
 21
1112.021650688042
 31
0.0
  0
LINE
  5
7C2
330
1F
100
AcDbEntity
  8
BMK
100
AcDbLine
 10
5089.18915020407
 20
1354.52165068804
 30
0.0
 11
5089.18915020407
 21
1112.021650688043
 31
0.0
  0
LINE
  5
A32
330
1F
100
AcDbEntity
  8
BMK
100
AcDbLine
 10
3292.918975145212
 20
2020.839900688043
 30
0.0
 11
2934.989073035549
 21
2020.839900688043
 31
0.0
  0
LINE
  5
A38
330
1F
100
AcDbEntity
  8
BMK
100
AcDbLine
 10
3292.918975145212
 20
2050.839900688043
 30
0.0
 11
2934.989073035549
 21
2050.839900688043
 31
0.0
  0
LINE
  5
A39
330
1F
100
AcDbEntity
  8
BMK
100
AcDbLine
 10
3292.918975145212
 20
2150.839900688043
 30
0.0
 11
2934.989073035549
 21
2150.839900688043
 31
0.0
  0
LINE
  5
A3A
330
1F
100
AcDbEntity
  8
BMK
100
AcDbLine
 10
3292.918975145212
 20
1398.203400688042
 30
0.0
 11
2934.989073035549
 21
1398.203400688042
 31
0.0
  0
LINE
  5
A3B
330
1F
100
AcDbEntity
  8
BMK
100
AcDbLine
 10
3292.918975145212
 20
1498.203400688042
 30
0.0
 11
2934.989073035549
 21
1498.203400688042
 31
0.0
  0
LINE
  5
A3C
330
1F
100
AcDbEntity
  8
BMK
100
AcDbLine
 10
3292.918975145212
 20
1528.203400688042
 30
0.0
 11
2934.989073035549
 21
1528.203400688042
 31
0.0
  0
LINE
  5
BB4
330
1F
100
AcDbEntity
  8
STR
100
AcDbLine
 10
1359.605291959283
 20
953.8966506880431
 30
0.0
 11
1359.605291959283
 21
737.3473366437217
 31
0.0
  0
LINE
  5
BB5
330
1F
100
AcDbEntity
  8
STR
100
AcDbLine
 10
3409.605291959283
 20
953.8966506880431
 30
0.0
 11
3409.605291959283
 21
737.3473366437217
 31
0.0
  0
LINE
  5
BB6
330
1F
100
AcDbEntity
  8
STR
100
AcDbLine
 10
1409.605291959283
 20
738.5973366437217
 30
0.0
 11
3359.605291959283
 21
738.5973366437217
 31
0.0
  0
LINE
  5
BBA
330
1F
100
AcDbEntity
  8
STR
100
AcDbLine
 10
2679.605291959283
 20
2570.471073765767
 30
0.0
 11
2679.605291959283
 21
2686.293234412778
 31
0.0
  0
LINE
  5
BBB
330
1F
100
AcDbEntity
  8
STR
100
AcDbLine
 10
3409.605291959295
 20
2569.846073765766
 30
0.0
 11
3409.605291959295
 21
2686.293234412778
 31
0.0
  0
LINE
  5
BBC
330
1F
100
AcDbEntity
  8
STR
100
AcDbLine
 10
2729.605291959283
 20
2685.043234412777
 30
0.0
 11
3359.605291959296
 21
2685.043234412777
 31
0.0
  0
LINE
  5
BC0
330
1F
100
AcDbEntity
  8
STR
100
AcDbLine
 10
1985.424436671239
 20
2174.521650688042
 30
0.0
 11
1984.799436671239
 21
2174.521650688042
 31
0.0
  0
LINE
  5
BC1
330
1F
100
AcDbEntity
  8
STR
100
AcDbLine
 10
1985.424436671239
 20
1374.521650688042
 30
0.0
 11
1984.799436671238
 21
1374.521650688042
 31
0.0
  0
LINE
  5
BC2
330
1F
100
AcDbEntity
  8
STR
100
AcDbLine
 10
1986.049436671239
 20
2124.521650688043
 30
0.0
 11
1986.049436671239
 21
1424.521650688042
 31
0.0
  0
MTEXT
  5
BC5
330
1F
100
AcDbEntity
  8
STR
100
AcDbMText
 10
1926.049436671238
 20
1774.521650688043
 30
0.0
 40
60.0
 41
0.0
 71
     5
 72
     1
  1
　
 11
0.0000000000000001
 21
1.0
 31
0.0
1001
ACAD
1000
MTEXTBEGIN
1070
    73
1070
     1
1070
    44
1040
1.0
1070
    74
1070
     0
1000
MTEXTEND
  0
LINE
  5
BC6
330
1F
100
AcDbEntity
  8
STR
100
AcDbLine
 10
1333.980291959283
 20
979.521650688043
 30
0.0
 11
1279.600208184954
 21
979.5216506880432
 31
0.0
  0
LINE
  5
BC7
330
1F
100
AcDbEntity
  8
STR
100
AcDbLine
 10
1333.980291959283
 20
1209.521650688043
 30
0.0
 11
1279.600208184954
 21
1209.521650688043
 31
0.0
  0
LINE
  5
BC8
330
1F
100
AcDbEntity
  8
STR
100
AcDbLine
 10
1280.850208184954
 20
1029.521650688043
 30
0.0
 11
1280.850208184954
 21
1159.521650688043
 31
0.0
  0
LINE
  5
BCC
330
1F
100
AcDbEntity
  8
STR
100
AcDbLine
 10
1334.605291959283
 20
1209.521650688043
 30
0.0
 11
1280.225208184954
 21
1209.521650688043
 31
0.0
  0
LINE
  5
BCD
330
1F
100
AcDbEntity
  8
STR
100
AcDbLine
 10
1334.605291959283
 20
1234.521650688042
 30
0.0
 11
1280.225208184954
 21
1234.521650688042
 31
0.0
  0
LINE
  5
BCE
330
1F
100
AcDbEntity
  8
STR
100
AcDbLine
 10
1281.475208184954
 20
1159.521650688043
 30
0.0
 11
1281.475208184954
 21
1109.521650688043
 31
0.0
  0
LINE
  5
BCF
330
1F
100
AcDbEntity
  8
STR
100
AcDbLine
 10
1281.475208184954
 20
1284.521650688042
 30
0.0
 11
1281.475208184954
 21
1334.521650688042
 31
0.0
  0
LINE
  5
BD1
330
1F
100
AcDbEntity
  8
STR
100
AcDbLine
 10
1281.475208184954
 20
1209.521650688043
 30
0.0
 11
1281.475208184954
 21
1234.521650688042
 31
0.0
  0
LINE
  5
BD4
330
1F
100
AcDbEntity
  8
STR
100
AcDbLine
 10
3360.230291959283
 20
2534.521650688043
 30
0.0
 11
3732.674321298756
 21
2534.521650688043
 31
0.0
  0
LINE
  5
BD5
330
1F
100
AcDbEntity
  8
STR
100
AcDbLine
 10
3360.230291959283
 20
979.521650688043
 30
0.0
 11
3732.674321298756
 21
979.521650688043
 31
0.0
  0
LINE
  5
BD6
330
1F
100
AcDbEntity
  8
STR
100
AcDbLine
 10
3731.424321298757
 20
2484.521650688043
 30
0.0
 11
3731.424321298757
 21
1029.521650688042
 31
0.0
  0
LINE
  5
BDA
330
1F
100
AcDbEntity
  8
STR
100
AcDbLine
 10
4164.189150204069
 20
925.8983668282672
 30
0.0
 11
4164.189150204069
 21
513.1094707926295
 31
0.0
  0
LINE
  5
BDB
330
1F
100
AcDbEntity
  8
STR
100
AcDbLine
 10
5164.189150204068
 20
925.8983668282672
 30
0.0
 11
5164.189150204068
 21
513.1094707926295
 31
0.0
  0
LINE
  5
BDC
330
1F
100
AcDbEntity
  8
STR
100
AcDbLine
 10
4214.189150204069
 20
514.3594707926295
 30
0.0
 11
5114.189150204068
 21
514.3594707926295
 31
0.0
  0
LINE
  5
BE0
330
1F
100
AcDbEntity
  8
STR
100
AcDbLine
 10
4214.189150204069
 20
925.8983668282672
 30
0.0
 11
4214.189150204069
 21
745.6319263832738
 31
0.0
  0
LINE
  5
BE1
330
1F
100
AcDbEntity
  8
STR
100
AcDbLine
 10
5114.18915020407
 20
925.8983668282672
 30
0.0
 11
5114.18915020407
 21
745.6319263832738
 31
0.0
  0
LINE
  5
BE2
330
1F
100
AcDbEntity
  8
STR
100
AcDbLine
 10
4264.189150204069
 20
746.8819263832738
 30
0.0
 11
5064.18915020407
 21
746.8819263832738
 31
0.0
  0
LINE
  5
BE6
330
1F
100
AcDbEntity
  8
STR
100
AcDbLine
 10
4417.870900204069
 20
1672.493290878036
 30
0.0
 11
4562.160790394062
 21
1528.203400688042
 31
0.0
  0
LINE
  5
BE7
330
1F
100
AcDbEntity
  8
STR
100
AcDbLine
 10
4562.160790394062
 20
1528.203400688042
 30
0.0
 11
4766.217510014075
 21
1528.203400688042
 31
0.0
  0
LINE
  5
BE8
330
1F
100
AcDbEntity
  8
STR
100
AcDbLine
 10
4766.217510014075
 20
1528.203400688042
 30
0.0
 11
4910.507400204069
 21
1672.493290878036
 31
0.0
  0
LINE
  5
BE9
330
1F
100
AcDbEntity
  8
STR
100
AcDbLine
 10
4910.507400204069
 20
1672.493290878036
 30
0.0
 11
4910.50740020407
 21
1876.55001049805
 31
0.0
  0
LINE
  5
BEA
330
1F
100
AcDbEntity
  8
STR
100
AcDbLine
 10
4910.50740020407
 20
1876.55001049805
 30
0.0
 11
4766.217510014075
 21
2020.839900688043
 31
0.0
  0
LINE
  5
BEB
330
1F
100
AcDbEntity
  8
STR
100
AcDbLine
 10
4766.217510014075
 20
2020.839900688043
 30
0.0
 11
4562.160790394062
 21
2020.839900688043
 31
0.0
  0
LINE
  5
BEC
330
1F
100
AcDbEntity
  8
STR
100
AcDbLine
 10
4562.160790394062
 20
2020.839900688043
 30
0.0
 11
4417.870900204069
 21
1876.550010498049
 31
0.0
  0
LINE
  5
BED
330
1F
100
AcDbEntity
  8
STR
100
AcDbLine
 10
4417.870900204069
 20
1876.550010498049
 30
0.0
 11
4417.870900204069
 21
1672.493290878036
 31
0.0
  0
LINE
  5
BEE
330
1F
100
AcDbEntity
  8
STR
100
AcDbLine
 10
3570.827306629019
 20
979.521650688043
 30
0.0
 11
3538.10704384134
 21
979.521650688043
 31
0.0
  0
LINE
  5
BEF
330
1F
100
AcDbEntity
  8
STR
100
AcDbLine
 10
3570.827306629019
 20
1774.521650688043
 30
0.0
 11
3538.10704384134
 21
1774.521650688043
 31
0.0
  0
LINE
  5
BF0
330
1F
100
AcDbEntity
  8
STR
100
AcDbLine
 10
3539.35704384134
 20
1029.521650688043
 30
0.0
 11
3539.35704384134
 21
1724.521650688043
 31
0.0
  0
LINE
  5
BF4
330
1F
100
AcDbEntity
  8
STR
100
AcDbLine
 10
5189.189150204069
 20
1701.88427737357
 30
0.0
 11
5189.189150204069
 21
1654.080864312851
 31
0.0
  0
LINE
  5
BF5
330
1F
100
AcDbEntity
  8
STR
100
AcDbLine
 10
5339.189150204068
 20
1820.925010498049
 30
0.0
 11
5339.189150204068
 21
1654.080864312851
 31
0.0
  0
LINE
  5
BF6
330
1F
100
AcDbEntity
  8
STR
100
AcDbLine
 10
5139.189150204069
 20
1655.330864312851
 30
0.0
 11
5089.189150204069
 21
1655.330864312851
 31
0.0
  0
LINE
  5
BF7
330
1F
100
AcDbEntity
  8
STR
100
AcDbLine
 10
5389.189150204067
 20
1655.330864312851
 30
0.0
 11
5629.189150204068
 21
1655.330864312851
 31
0.0
  0
LINE
  5
BF8
330
1F
100
AcDbEntity
  8
STR
100
AcDbLine
 10
5189.189150204069
 20
1655.330864312851
 30
0.0
 11
5339.189150204068
 21
1655.330864312851
 31
0.0
  0
LINE
  5
BFC
330
1F
100
AcDbEntity
  8
STR
100
AcDbLine
 10
4139.189150204069
 20
2525.19821421861
 30
0.0
 11
4139.189150204069
 21
2785.654604612815
 31
0.0
  0
LINE
  5
BFD
330
1F
100
AcDbEntity
  8
STR
100
AcDbLine
 10
5189.189150204069
 20
2525.19821421861
 30
0.0
 11
5189.189150204069
 21
2785.654604612815
 31
0.0
  0
LINE
  5
BFE
330
1F
100
AcDbEntity
  8
STR
100
AcDbLine
 10
4189.189150204069
 20
2784.404604612815
 30
0.0
 11
5139.189150204069
 21
2784.404604612815
 31
0.0
  0
TEXT
  5
C02
330
1F
100
AcDbEntity
  8
STR
100
AcDbText
 10
2969.605291959289
 20
2715.043234412777
 30
0.0
 40
60.0
  1
730
100
AcDbText
  0
TEXT
  5
C03
330
1F
100
AcDbEntity
  8
STR
100
AcDbText
 10
2284.605291959283
 20
768.5973366437218
 30
0.0
 40
60.0
  1
2050
100
AcDbText
  0
LINE
  5
C04
330
1F
100
AcDbEntity
  8
STR
  6
BYBLOCK
 62
     0
100
AcDbLine
 10
1409.605291959283
 20
725.1998771437217
 30
0.0
 11
1359.605291959283
 21
738.5973366437217
 31
0.0
  0
LINE
  5
C05
330
1F
100
AcDbEntity
  8
STR
  6
BYBLOCK
 62
     0
100
AcDbLine
 10
1359.605291959283
 20
738.5973366437217
 30
0.0
 11
1409.605291959283
 21
751.9947961437217
 31
0.0
  0
LINE
  5
C06
330
1F
100
AcDbEntity
  8
STR
  6
BYBLOCK
 62
     0
100
AcDbLine
 10
1359.605291959283
 20
738.5973366437217
 30
0.0
 11
1409.605291959283
 21
738.5973366437217
 31
0.0
  0
TEXT
  5
C07
330
1F
100
AcDbEntity
  8
STR
100
AcDbText
 10
1250.850208184954
 20
1019.521650688043
 30
0.0
 40
60.0
  1
230
 50
90.0
100
AcDbText
  0
LINE
  5
C08
330
1F
100
AcDbEntity
  8
STR
  6
BYBLOCK
 62
     0
100
AcDbLine
 10
1294.247667684954
 20
1029.521650688043
 30
0.0
 11
1280.850208184954
 21
979.521650688043
 31
0.0
  0
LINE
  5
C09
330
1F
100
AcDbEntity
  8
STR
  6
BYBLOCK
 62
     0
100
AcDbLine
 10
1280.850208184954
 20
979.521650688043
 30
0.0
 11
1267.452748684954
 21
1029.521650688043
 31
0.0
  0
LINE
  5
C0A
330
1F
100
AcDbEntity
  8
STR
  6
BYBLOCK
 62
     0
100
AcDbLine
 10
1280.850208184954
 20
979.521650688043
 30
0.0
 11
1280.850208184954
 21
1029.521650688043
 31
0.0
  0
LINE
  5
C0B
330
1F
100
AcDbEntity
  8
STR
  6
BYBLOCK
 62
     0
100
AcDbLine
 10
1294.872667684954
 20
1284.521650688042
 30
0.0
 11
1281.475208184954
 21
1234.521650688042
 31
0.0
  0
LINE
  5
C0C
330
1F
100
AcDbEntity
  8
STR
  6
BYBLOCK
 62
     0
100
AcDbLine
 10
1281.475208184954
 20
1234.521650688042
 30
0.0
 11
1268.077748684954
 21
1284.521650688042
 31
0.0
  0
LINE
  5
C0D
330
1F
100
AcDbEntity
  8
STR
  6
BYBLOCK
 62
     0
100
AcDbLine
 10
1281.475208184954
 20
1234.521650688042
 30
0.0
 11
1281.475208184954
 21
1284.521650688042
 31
0.0
  0
TEXT
  5
C0E
330
1F
100
AcDbEntity
  8
STR
100
AcDbText
 10
1251.475208184954
 20
1234.521650688042
 30
0.0
 40
60.0
  1
25
 50
90.0
100
AcDbText
  0
LINE
  5
C0F
330
1F
100
AcDbEntity
  8
STR
  6
BYBLOCK
 62
     0
100
AcDbLine
 10
1268.077748684954
 20
1159.521650688043
 30
0.0
 11
1281.475208184954
 21
1209.521650688043
 31
0.0
  0
LINE
  5
C10
330
1F
100
AcDbEntity
  8
STR
  6
BYBLOCK
 62
     0
100
AcDbLine
 10
1281.475208184954
 20
1209.521650688043
 30
0.0
 11
1294.872667684954
 21
1159.521650688043
 31
0.0
  0
LINE
  5
C11
330
1F
100
AcDbEntity
  8
STR
  6
BYBLOCK
 62
     0
100
AcDbLine
 10
1281.475208184954
 20
1209.521650688043
 30
0.0
 11
1281.475208184954
 21
1159.521650688043
 31
0.0
  0
LINE
  5
C12
330
1F
100
AcDbEntity
  8
STR
  6
BYBLOCK
 62
     0
100
AcDbLine
 10
1267.452748684954
 20
1159.521650688043
 30
0.0
 11
1280.850208184954
 21
1209.521650688043
 31
0.0
  0
LINE
  5
C13
330
1F
100
AcDbEntity
  8
STR
  6
BYBLOCK
 62
     0
100
AcDbLine
 10
1280.850208184954
 20
1209.521650688043
 30
0.0
 11
1294.247667684954
 21
1159.521650688043
 31
0.0
  0
LINE
  5
C14
330
1F
100
AcDbEntity
  8
STR
  6
BYBLOCK
 62
     0
100
AcDbLine
 10
1280.850208184954
 20
1209.521650688043
 30
0.0
 11
1280.850208184954
 21
1159.521650688043
 31
0.0
  0
LINE
  5
C15
330
1F
100
AcDbEntity
  8
STR
  6
BYBLOCK
 62
     0
100
AcDbLine
 10
1999.446896171239
 20
1424.521650688042
 30
0.0
 11
1986.049436671239
 21
1374.521650688042
 31
0.0
  0
LINE
  5
C16
330
1F
100
AcDbEntity
  8
STR
  6
BYBLOCK
 62
     0
100
AcDbLine
 10
1986.049436671239
 20
1374.521650688042
 30
0.0
 11
1972.651977171238
 21
1424.521650688042
 31
0.0
  0
LINE
  5
C17
330
1F
100
AcDbEntity
  8
STR
  6
BYBLOCK
 62
     0
100
AcDbLine
 10
1986.049436671239
 20
1374.521650688042
 30
0.0
 11
1986.049436671239
 21
1424.521650688042
 31
0.0
  0
LINE
  5
C18
330
1F
100
AcDbEntity
  8
STR
  6
BYBLOCK
 62
     0
100
AcDbLine
 10
1972.651977171239
 20
2124.521650688043
 30
0.0
 11
1986.049436671239
 21
2174.521650688042
 31
0.0
  0
LINE
  5
C19
330
1F
100
AcDbEntity
  8
STR
  6
BYBLOCK
 62
     0
100
AcDbLine
 10
1986.049436671239
 20
2174.521650688042
 30
0.0
 11
1999.446896171239
 21
2124.521650688043
 31
0.0
  0
LINE
  5
C1A
330
1F
100
AcDbEntity
  8
STR
  6
BYBLOCK
 62
     0
100
AcDbLine
 10
1986.049436671239
 20
2174.521650688042
 30
0.0
 11
1986.049436671239
 21
2124.521650688043
 31
0.0
  0
LINE
  5
C1B
330
1F
100
AcDbEntity
  8
STR
  6
BYBLOCK
 62
     0
100
AcDbLine
 10
2729.605291959283
 20
2671.645774912777
 30
0.0
 11
2679.605291959283
 21
2685.043234412777
 31
0.0
  0
LINE
  5
C1C
330
1F
100
AcDbEntity
  8
STR
  6
BYBLOCK
 62
     0
100
AcDbLine
 10
2679.605291959283
 20
2685.043234412777
 30
0.0
 11
2729.605291959283
 21
2698.440693912777
 31
0.0
  0
LINE
  5
C1D
330
1F
100
AcDbEntity
  8
STR
  6
BYBLOCK
 62
     0
100
AcDbLine
 10
2679.605291959283
 20
2685.043234412777
 30
0.0
 11
2729.605291959283
 21
2685.043234412777
 31
0.0
  0
TEXT
  5
C1E
330
1F
100
AcDbEntity
  8
STR
100
AcDbText
 10
4594.189150204068
 20
776.8819263832738
 30
0.0
 40
60.0
  1
900
100
AcDbText
  0
LINE
  5
C1F
330
1F
100
AcDbEntity
  8
STR
  6
BYBLOCK
 62
     0
100
AcDbLine
 10
3359.605291959283
 20
751.9947961437217
 30
0.0
 11
3409.605291959283
 21
738.5973366437217
 31
0.0
  0
LINE
  5
C20
330
1F
100
AcDbEntity
  8
STR
  6
BYBLOCK
 62
     0
100
AcDbLine
 10
3409.605291959283
 20
738.5973366437217
 30
0.0
 11
3359.605291959283
 21
725.1998771437217
 31
0.0
  0
LINE
  5
C21
330
1F
100
AcDbEntity
  8
STR
  6
BYBLOCK
 62
     0
100
AcDbLine
 10
3409.605291959283
 20
738.5973366437217
 30
0.0
 11
3359.605291959283
 21
738.5973366437217
 31
0.0
  0
LINE
  5
C22
330
1F
100
AcDbEntity
  8
STR
  6
BYBLOCK
 62
     0
100
AcDbLine
 10
4214.189150204069
 20
500.9620112926294
 30
0.0
 11
4164.189150204069
 21
514.3594707926295
 31
0.0
  0
LINE
  5
C23
330
1F
100
AcDbEntity
  8
STR
  6
BYBLOCK
 62
     0
100
AcDbLine
 10
4164.189150204069
 20
514.3594707926295
 30
0.0
 11
4214.189150204069
 21
527.7569302926294
 31
0.0
  0
LINE
  5
C24
330
1F
100
AcDbEntity
  8
STR
  6
BYBLOCK
 62
     0
100
AcDbLine
 10
4164.189150204069
 20
514.3594707926295
 30
0.0
 11
4214.189150204069
 21
514.3594707926295
 31
0.0
  0
LINE
  5
C25
330
1F
100
AcDbEntity
  8
STR
  6
BYBLOCK
 62
     0
100
AcDbLine
 10
4264.189150204069
 20
733.4844668832738
 30
0.0
 11
4214.189150204069
 21
746.8819263832738
 31
0.0
  0
LINE
  5
C26
330
1F
100
AcDbEntity
  8
STR
  6
BYBLOCK
 62
     0
100
AcDbLine
 10
4214.189150204069
 20
746.8819263832738
 30
0.0
 11
4264.189150204069
 21
760.2793858832738
 31
0.0
  0
LINE
  5
C27
330
1F
100
AcDbEntity
  8
STR
  6
BYBLOCK
 62
     0
100
AcDbLine
 10
4214.189150204069
 20
746.8819263832738
 30
0.0
 11
4264.189150204069
 21
746.8819263832738
 31
0.0
  0
TEXT
  5
C28
330
1F
100
AcDbEntity
  8
STR
100
AcDbText
 10
4579.189150204069
 20
544.3594707926295
 30
0.0
 40
60.0
  1
1000
100
AcDbText
  0
TEXT
  5
C29
330
1F
100
AcDbEntity
  8
STR
100
AcDbText
 10
3509.35704384134
 20
1297.021650688043
 30
0.0
 40
60.0
  1
795
 50
90.0
100
AcDbText
  0
LINE
  5
C2A
330
1F
100
AcDbEntity
  8
STR
  6
BYBLOCK
 62
     0
100
AcDbLine
 10
3552.754503341339
 20
1029.521650688043
 30
0.0
 11
3539.35704384134
 21
979.521650688043
 31
0.0
  0
LINE
  5
C2B
330
1F
100
AcDbEntity
  8
STR
  6
BYBLOCK
 62
     0
100
AcDbLine
 10
3539.35704384134
 20
979.521650688043
 30
0.0
 11
3525.95958434134
 21
1029.521650688043
 31
0.0
  0
LINE
  5
C2C
330
1F
100
AcDbEntity
  8
STR
  6
BYBLOCK
 62
     0
100
AcDbLine
 10
3539.35704384134
 20
979.521650688043
 30
0.0
 11
3539.35704384134
 21
1029.521650688043
 31
0.0
  0
LINE
  5
C2D
330
1F
100
AcDbEntity
  8
STR
  6
BYBLOCK
 62
     0
100
AcDbLine
 10
3744.821780798756
 20
1029.521650688043
 30
0.0
 11
3731.424321298756
 21
979.521650688043
 31
0.0
  0
LINE
  5
C2E
330
1F
100
AcDbEntity
  8
STR
  6
BYBLOCK
 62
     0
100
AcDbLine
 10
3731.424321298756
 20
979.521650688043
 30
0.0
 11
3718.026861798756
 21
1029.521650688043
 31
0.0
  0
LINE
  5
C2F
330
1F
100
AcDbEntity
  8
STR
  6
BYBLOCK
 62
     0
100
AcDbLine
 10
3731.424321298756
 20
979.521650688043
 30
0.0
 11
3731.424321298756
 21
1029.521650688043
 31
0.0
  0
LINE
  5
C30
330
1F
100
AcDbEntity
  8
STR
  6
BYBLOCK
 62
     0
100
AcDbLine
 10
3525.95958434134
 20
1724.521650688043
 30
0.0
 11
3539.35704384134
 21
1774.521650688043
 31
0.0
  0
LINE
  5
C31
330
1F
100
AcDbEntity
  8
STR
  6
BYBLOCK
 62
     0
100
AcDbLine
 10
3539.35704384134
 20
1774.521650688043
 30
0.0
 11
3552.75450334134
 21
1724.521650688043
 31
0.0
  0
LINE
  5
C32
330
1F
100
AcDbEntity
  8
STR
  6
BYBLOCK
 62
     0
100
AcDbLine
 10
3539.35704384134
 20
1774.521650688043
 30
0.0
 11
3539.35704384134
 21
1724.521650688043
 31
0.0
  0
TEXT
  5
C33
330
1F
100
AcDbEntity
  8
STR
100
AcDbText
 10
3701.424321298756
 20
1657.021650688044
 30
0.0
 40
60.0
  1
1555
 50
90.0
100
AcDbText
  0
LINE
  5
C34
330
1F
100
AcDbEntity
  8
STR
  6
BYBLOCK
 62
     0
100
AcDbLine
 10
5114.189150204068
 20
527.7569302926294
 30
0.0
 11
5164.189150204068
 21
514.3594707926295
 31
0.0
  0
LINE
  5
C35
330
1F
100
AcDbEntity
  8
STR
  6
BYBLOCK
 62
     0
100
AcDbLine
 10
5164.189150204068
 20
514.3594707926295
 30
0.0
 11
5114.189150204068
 21
500.9620112926294
 31
0.0
  0
LINE
  5
C36
330
1F
100
AcDbEntity
  8
STR
  6
BYBLOCK
 62
     0
100
AcDbLine
 10
5164.189150204068
 20
514.3594707926295
 30
0.0
 11
5114.189150204068
 21
514.3594707926295
 31
0.0
  0
LINE
  5
C37
330
1F
100
AcDbEntity
  8
STR
  6
BYBLOCK
 62
     0
100
AcDbLine
 10
5064.18915020407
 20
760.2793858832738
 30
0.0
 11
5114.18915020407
 21
746.8819263832738
 31
0.0
  0
LINE
  5
C38
330
1F
100
AcDbEntity
  8
STR
  6
BYBLOCK
 62
     0
100
AcDbLine
 10
5114.18915020407
 20
746.8819263832738
 30
0.0
 11
5064.18915020407
 21
733.4844668832738
 31
0.0
  0
LINE
  5
C39
330
1F
100
AcDbEntity
  8
STR
  6
BYBLOCK
 62
     0
100
AcDbLine
 10
5114.18915020407
 20
746.8819263832738
 30
0.0
 11
5064.18915020407
 21
746.8819263832738
 31
0.0
  0
LINE
  5
C3A
330
1F
100
AcDbEntity
  8
STR
  6
BYBLOCK
 62
     0
100
AcDbLine
 10
5139.189150204069
 20
1668.728323812851
 30
0.0
 11
5189.189150204069
 21
1655.330864312851
 31
0.0
  0
LINE
  5
C3B
330
1F
100
AcDbEntity
  8
STR
  6
BYBLOCK
 62
     0
100
AcDbLine
 10
5189.189150204069
 20
1655.330864312851
 30
0.0
 11
5139.189150204069
 21
1641.933404812851
 31
0.0
  0
LINE
  5
C3C
330
1F
100
AcDbEntity
  8
STR
  6
BYBLOCK
 62
     0
100
AcDbLine
 10
5189.189150204069
 20
1655.330864312851
 30
0.0
 11
5139.189150204069
 21
1655.330864312851
 31
0.0
  0
TEXT
  5
C3D
330
1F
100
AcDbEntity
  8
STR
100
AcDbText
 10
5469.189150204068
 20
1685.330864312851
 30
0.0
 40
60.0
  1
150
100
AcDbText
  0
LINE
  5
C3E
330
1F
100
AcDbEntity
  8
STR
  6
BYBLOCK
 62
     0
100
AcDbLine
 10
5389.189150204067
 20
1641.933404812851
 30
0.0
 11
5339.189150204068
 21
1655.330864312851
 31
0.0
  0
LINE
  5
C3F
330
1F
100
AcDbEntity
  8
STR
  6
BYBLOCK
 62
     0
100
AcDbLine
 10
5339.189150204068
 20
1655.330864312851
 30
0.0
 11
5389.189150204067
 21
1668.728323812851
 31
0.0
  0
LINE
  5
C40
330
1F
100
AcDbEntity
  8
STR
  6
BYBLOCK
 62
     0
100
AcDbLine
 10
5339.189150204068
 20
1655.330864312851
 30
0.0
 11
5389.189150204067
 21
1655.330864312851
 31
0.0
  0
LINE
  5
C41
330
1F
100
AcDbEntity
  8
STR
  6
BYBLOCK
 62
     0
100
AcDbLine
 10
3359.605291959296
 20
2698.440693912777
 30
0.0
 11
3409.605291959295
 21
2685.043234412777
 31
0.0
  0
LINE
  5
C42
330
1F
100
AcDbEntity
  8
STR
  6
BYBLOCK
 62
     0
100
AcDbLine
 10
3409.605291959295
 20
2685.043234412777
 30
0.0
 11
3359.605291959296
 21
2671.645774912777
 31
0.0
  0
LINE
  5
C43
330
1F
100
AcDbEntity
  8
STR
  6
BYBLOCK
 62
     0
100
AcDbLine
 10
3409.605291959295
 20
2685.043234412777
 30
0.0
 11
3359.605291959296
 21
2685.043234412777
 31
0.0
  0
LINE
  5
C44
330
1F
100
AcDbEntity
  8
STR
  6
BYBLOCK
 62
     0
100
AcDbLine
 10
3718.026861798756
 20
2484.521650688043
 30
0.0
 11
3731.424321298757
 21
2534.521650688043
 31
0.0
  0
LINE
  5
C45
330
1F
100
AcDbEntity
  8
STR
  6
BYBLOCK
 62
     0
100
AcDbLine
 10
3731.424321298757
 20
2534.521650688043
 30
0.0
 11
3744.821780798757
 21
2484.521650688043
 31
0.0
  0
LINE
  5
C46
330
1F
100
AcDbEntity
  8
STR
  6
BYBLOCK
 62
     0
100
AcDbLine
 10
3731.424321298757
 20
2534.521650688043
 30
0.0
 11
3731.424321298757
 21
2484.521650688043
 31
0.0
  0
LINE
  5
C47
330
1F
100
AcDbEntity
  8
STR
  6
BYBLOCK
 62
     0
100
AcDbLine
 10
4189.189150204069
 20
2771.007145112815
 30
0.0
 11
4139.189150204069
 21
2784.404604612815
 31
0.0
  0
LINE
  5
C48
330
1F
100
AcDbEntity
  8
STR
  6
BYBLOCK
 62
     0
100
AcDbLine
 10
4139.189150204069
 20
2784.404604612815
 30
0.0
 11
4189.189150204069
 21
2797.802064112815
 31
0.0
  0
LINE
  5
C49
330
1F
100
AcDbEntity
  8
STR
  6
BYBLOCK
 62
     0
100
AcDbLine
 10
4139.189150204069
 20
2784.404604612815
 30
0.0
 11
4189.189150204069
 21
2784.404604612815
 31
0.0
  0
TEXT
  5
C4A
330
1F
100
AcDbEntity
  8
STR
100
AcDbText
 10
4574.189150204069
 20
2814.404604612815
 30
0.0
 40
60.0
  1
1050
100
AcDbText
  0
LINE
  5
C4B
330
1F
100
AcDbEntity
  8
STR
  6
BYBLOCK
 62
     0
100
AcDbLine
 10
5139.189150204069
 20
2797.802064112815
 30
0.0
 11
5189.189150204069
 21
2784.404604612815
 31
0.0
  0
LINE
  5
C4C
330
1F
100
AcDbEntity
  8
STR
  6
BYBLOCK
 62
     0
100
AcDbLine
 10
5189.189150204069
 20
2784.404604612815
 30
0.0
 11
5139.189150204069
 21
2771.007145112815
 31
0.0
  0
LINE
  5
C4D
330
1F
100
AcDbEntity
  8
STR
  6
BYBLOCK
 62
     0
100
AcDbLine
 10
5189.189150204069
 20
2784.404604612815
 30
0.0
 11
5139.189150204069
 21
2784.404604612815
 31
0.0
  0
ENDSEC
  0
SECTION
  2
OBJECTS
  0
DICTIONARY
  5
C
330
0
100
AcDbDictionary
  3
ACAD_COLOR
350
6B
  3
ACAD_GROUP
350
D
  3
ACAD_LAYOUT
350
1A
  3
ACAD_MATERIAL
350
6A
  3
ACAD_MLINESTYLE
350
17
  3
ACAD_PLOTSETTINGS
350
19
  3
ACAD_PLOTSTYLENAME
350
E
  3
ACDBHEADERROUNDTRIPXREC
350
C4F
  3
ACDBVARIABLEDICTIONARY
350
5E
  0
DICTIONARY
  5
A73
330
1F
100
AcDbDictionary
280
     1
  3
ACAD_LAYOUTSELFREF
360
C70
  0
DICTIONARY
  5
A75
330
A5A
100
AcDbDictionary
280
     1
  3
ACAD_LAYOUTSELFREF
360
C71
  0
DICTIONARY
  5
6B
102
{ACAD_REACTORS
330
C
102
}
330
C
100
AcDbDictionary
  0
DICTIONARY
  5
D
102
{ACAD_REACTORS
330
C
102
}
330
C
100
AcDbDictionary
  0
DICTIONARY
  5
1A
102
{ACAD_REACTORS
330
C
102
}
330
C
100
AcDbDictionary
  0
DICTIONARY
  5
6A
102
{ACAD_REACTORS
330
C
102
}
330
C
100
AcDbDictionary
  0
DICTIONARY
  5
17
102
{ACAD_REACTORS
330
C
102
}
330
C
100
AcDbDictionary
  3
STANDARD
350
18
  0
DICTIONARY
  5
19
102
{ACAD_REACTORS
330
C
102
}
330
C
100
AcDbDictionary
  0
ACDBDICTIONARYWDFLT
  5
E
102
{ACAD_REACTORS
330
C
102
}
330
C
100
AcDbDictionary
281
     1
  3
Normal
350
F
100
AcDbDictionaryWithDefault
340
F
  0
DICTIONARY
  5
C4F
102
{ACAD_REACTORS
330
C
102
}
330
C
100
AcDbDictionary
  3
CEPSNTYPE
350
C59
  3
DIMSTYLEDATA
350
C5D
  3
FINGERPRINTGUID
350
C5A
  3
HYPERLINKBASE
350
C52
  3
INSUNITS
350
C58
  3
LAYOUTDICT
350
C54
  3
LWETCUNION
350
C57
  3
PLOTSETDICT
350
C55
  3
PLOTSTYLNAMDICT
350
C56
  3
PSVPSCALE
350
C5C
  3
PUCSBASE
350
C60
  3
PUCSORGBACK
350
C66
  3
PUCSORGBOTTOM
350
C62
  3
PUCSORGFRONT
350
C65
  3
PUCSORGLEFT
350
C63
  3
PUCSORGRIGHT
350
C64
  3
PUCSORGTOP
350
C61
  3
PUCSORTHOREF
350
C5E
  3
PUCSORTHOVIEW
350
C5F
  3
STYLESHEET
350
C53
  3
TSTACKALIGN
350
C50
  3
TSTACKSIZE
350
C51
  3
UCSBASE
350
C69
  3
UCSORGBACK
350
C6F
  3
UCSORGBOTTOM
350
C6B
  3
UCSORGFRONT
350
C6E
  3
UCSORGLEFT
350
C6C
  3
UCSORGRIGHT
350
C6D
  3
UCSORGTOP
350
C6A
  3
UCSORTHOREF
350
C67
  3
UCSORTHOVIEW
350
C68
  3
VERSIONGUID
350
C5B
  0
DICTIONARY
  5
5E
102
{ACAD_REACTORS
330
C
102
}
330
C
100
AcDbDictionary
  3
DIMASSOC
350
5F
  3
HIDETEXT
350
63
  3
PROJECTNAME
350
A6D
  0
XRECORD
  5
C70
102
{ACAD_REACTORS
330
A73
102
}
330
A73
100
AcDbXrecord
340
1F
  0
XRECORD
  5
C71
102
{ACAD_REACTORS
330
A75
102
}
330
A75
100
AcDbXrecord
340
A5A
  0
MLINESTYLE
  5
18
102
{ACAD_REACTORS
330
17
102
}
330
17
100
AcDbMlineStyle
  2
STANDARD
 70
     0
  3

 62
   256
 51
90.0
 52
90.0
 71
     2
 49
0.5
 62
   256
  6
BYLAYER
 49
-0.5
 62
   256
  6
BYLAYER
  0
ACDBPLACEHOLDER
  5
F
102
{ACAD_REACTORS
330
E
102
}
330
E
100
AcDbPlaceHolder
280
     0
  0
XRECORD
  5
C59
102
{ACAD_REACTORS
330
C4F
102
}
330
C4F
100
AcDbXrecord
 90
        0
  0
XRECORD
  5
C5D
102
{ACAD_REACTORS
330
C4F
102
}
330
C4F
100
AcDbXrecord
1000
DSTYLE
1002
{
1070
   278
 70
    44
1070
   341
340
ED
1070
   342
340
9F
1002
}
  0
XRECORD
  5
C5A
102
{ACAD_REACTORS
330
C4F
102
}
330
C4F
100
AcDbXrecord
  1
{FDEAD578-A652-11D2-9A35-0060089B3A3F}
  0
XRECORD
  5
C52
102
{ACAD_REACTORS
330
C4F
102
}
330
C4F
100
AcDbXrecord
  1

  0
XRECORD
  5
C58
102
{ACAD_REACTORS
330
C4F
102
}
330
C4F
100
AcDbXrecord
 90
        4
  0
XRECORD
  5
C54
102
{ACAD_REACTORS
330
C4F
102
}
330
C4F
100
AcDbXrecord
340
1A
  0
XRECORD
  5
C57
102
{ACAD_REACTORS
330
C4F
102
}
330
C4F
100
AcDbXrecord
 90
    10781
  0
XRECORD
  5
C55
102
{ACAD_REACTORS
330
C4F
102
}
330
C4F
100
AcDbXrecord
340
19
  0
XRECORD
  5
C56
102
{ACAD_REACTORS
330
C4F
102
}
330
C4F
100
AcDbXrecord
340
E
  0
XRECORD
  5
C5C
102
{ACAD_REACTORS
330
C4F
102
}
330
C4F
100
AcDbXrecord
 40
0.0
  0
XRECORD
  5
C60
102
{ACAD_REACTORS
330
C4F
102
}
330
C4F
100
AcDbXrecord
340
0
  0
XRECORD
  5
C66
102
{ACAD_REACTORS
330
C4F
102
}
330
C4F
100
AcDbXrecord
 10
0.0
 20
0.0
 30
0.0
  0
XRECORD
  5
C62
102
{ACAD_REACTORS
330
C4F
102
}
330
C4F
100
AcDbXrecord
 10
0.0
 20
0.0
 30
0.0
  0
XRECORD
  5
C65
102
{ACAD_REACTORS
330
C4F
102
}
330
C4F
100
AcDbXrecord
 10
0.0
 20
0.0
 30
0.0
  0
XRECORD
  5
C63
102
{ACAD_REACTORS
330
C4F
102
}
330
C4F
100
AcDbXrecord
 10
0.0
 20
0.0
 30
0.0
  0
XRECORD
  5
C64
102
{ACAD_REACTORS
330
C4F
102
}
330
C4F
100
AcDbXrecord
 10
0.0
 20
0.0
 30
0.0
  0
XRECORD
  5
C61
102
{ACAD_REACTORS
330
C4F
102
}
330
C4F
100
AcDbXrecord
 10
0.0
 20
0.0
 30
0.0
  0
XRECORD
  5
C5E
102
{ACAD_REACTORS
330
C4F
102
}
330
C4F
100
AcDbXrecord
340
0
  0
XRECORD
  5
C5F
102
{ACAD_REACTORS
330
C4F
102
}
330
C4F
100
AcDbXrecord
 70
     0
  0
XRECORD
  5
C53
102
{ACAD_REACTORS
330
C4F
102
}
330
C4F
100
AcDbXrecord
  1

  0
XRECORD
  5
C50
102
{ACAD_REACTORS
330
C4F
102
}
330
C4F
100
AcDbXrecord
 90
        1
  0
XRECORD
  5
C51
102
{ACAD_REACTORS
330
C4F
102
}
330
C4F
100
AcDbXrecord
 90
       70
  0
XRECORD
  5
C69
102
{ACAD_REACTORS
330
C4F
102
}
330
C4F
100
AcDbXrecord
340
0
  0
XRECORD
  5
C6F
102
{ACAD_REACTORS
330
C4F
102
}
330
C4F
100
AcDbXrecord
 10
0.0
 20
0.0
 30
0.0
  0
XRECORD
  5
C6B
102
{ACAD_REACTORS
330
C4F
102
}
330
C4F
100
AcDbXrecord
 10
0.0
 20
0.0
 30
0.0
  0
XRECORD
  5
C6E
102
{ACAD_REACTORS
330
C4F
102
}
330
C4F
100
AcDbXrecord
 10
0.0
 20
0.0
 30
0.0
  0
XRECORD
  5
C6C
102
{ACAD_REACTORS
330
C4F
102
}
330
C4F
100
AcDbXrecord
 10
0.0
 20
0.0
 30
0.0
  0
XRECORD
  5
C6D
102
{ACAD_REACTORS
330
C4F
102
}
330
C4F
100
AcDbXrecord
 10
0.0
 20
0.0
 30
0.0
  0
XRECORD
  5
C6A
102
{ACAD_REACTORS
330
C4F
102
}
330
C4F
100
AcDbXrecord
 10
0.0
 20
0.0
 30
0.0
  0
XRECORD
  5
C67
102
{ACAD_REACTORS
330
C4F
102
}
330
C4F
100
AcDbXrecord
340
0
  0
XRECORD
  5
C68
102
{ACAD_REACTORS
330
C4F
102
}
330
C4F
100
AcDbXrecord
 70
     0
  0
XRECORD
  5
C5B
102
{ACAD_REACTORS
330
C4F
102
}
330
C4F
100
AcDbXrecord
  1
{A27AC86D-CC18-4327-B20B-13E577D57588}
  0
DICTIONARYVAR
  5
5F
102
{ACAD_REACTORS
330
5E
102
}
330
5E
100
DictionaryVariables
280
     0
  1
2
  0
DICTIONARYVAR
  5
63
102
{ACAD_REACTORS
330
5E
102
}
330
5E
100
DictionaryVariables
280
     0
  1
1
  0
DICTIONARYVAR
  5
A6D
102
{ACAD_REACTORS
330
5E
102
}
330
5E
100
DictionaryVariables
280
     0
  1

  0
ENDSEC
  0
EOF
