  0
SECTION
  2
HEADER
  9
$ACADVER
  1
AC1009
  9
$INSBASE
 10
0
 20
0
 30
0
  9
$EXTMIN
 10
0
 20
0
  9
$EXTMAX
 10
11880
 20
8400
  9
$LIMMIN
 10
0
 20
0
  9
$LIMMAX
 10
11880
 20
8400
  9
$LTSCALE
 40
40
  0
ENDSEC
  0
SECTION
  2
TABLES
  0
TABLE
  2
LTYPE
 70
     9
  0
LTYPE
  2
CONTINUOUS
 70
    64
  3
実線
 72
    65
 73
     0
 40
0.0
  0
LTYPE
  2
DASHED1
 70
    64
  3
--  --  --  --  --  --  --  --  
 72
    65
 73
     2
 40
2.5
 49
1.25
 49
-1.25
  0
LTYPE
  2
DASHED2
 70
    64
  3
----    ----    ----    ----    
 72
    65
 73
     2
 40
5.0
 49
2.5
 49
-2.5
  0
LTYPE
  2
DASHED3
 70
    64
  3
------  ------  ------  ------  
 72
    65
 73
     2
 40
5.0
 49
3.75
 49
-1.25
  0
LTYPE
  2
CENTER1
 70
    64
  3
----- - ----- - ----- - ----- - 
 72
    65
 73
     4
 40
10.0
 49
6.25
 49
-1.25
 49
1.25
 49
-1.25
  0
LTYPE
  2
CENTER2
 70
    64
  3
----------  --  ----------  --  
 72
    65
 73
     4
 40
20.0
 49
12.5
 49
-2.5
 49
2.5
 49
-2.5
  0
LTYPE
  2
PHANTOM1
 70
    64
  3
--- - - --- - - --- - - --- - - 
 72
    65
 73
     6
 40
10.0
 49
3.25
 49
-1.25
 49
1.25
 49
-1.25
 49
1.25
 49
-1.25
  0
LTYPE
  2
PHANTOM2
 70
    64
  3
--------  -  -  --------  -  -  
 72
    65
 73
     6
 40
20.0
 49
10.0
 49
-2.5
 49
1.25
 49
-2.5
 49
1.25
 49
-2.5
  0
LTYPE
  2
DOT
 70
    64
  3
-   -   -   -   -   -   -   -   
 72
    65
 73
     2
 40
2.5
 49
0.625
 49
-1.875
  0
LTYPE
  2
DUMMY
 70
    64
  3
ダミー
 72
    65
 73
     0
 40
0.0
  0
LTYPE
  2
RAND1
 70
    64
  3
ランダム線1
 72
    65
 73
     4
 40
10.0
 49
1.0
 49
-2.0
 49
3.0
 49
-4.0
  0
LTYPE
  2
RAND2
 70
    64
  3
ランダム線2
 72
    65
 73
     4
 40
14.0
 49
2.0
 49
-3.0
 49
4.0
 49
-5.0
  0
LTYPE
  2
RAND3
 70
    64
  3
ランダム線3
 72
    65
 73
     4
 40
18.0
 49
3.0
 49
-4.0
 49
5.0
 49
-6.0
  0
LTYPE
  2
RAND4
 70
    64
  3
ランダム線4
 72
    65
 73
     4
 40
22.0
 49
4.0
 49
-5.0
 49
6.0
 49
-7.0
  0
LTYPE
  2
RAND5
 70
    64
  3
ランダム線5
 72
    65
 73
     4
 40
26.0
 49
5.0
 49
-6.0
 49
7.0
 49
-8.0
  0
LTYPE
  2
LONG1
 70
    64
  3
----------  --  ----------  --  
 72
    65
 73
     4
 40
40.0
 49
32.5
 49
-2.5
 49
2.5
 49
-2.5
  0
LTYPE
  2
LONG2
 70
    64
  3
--------  -  -  --------  -  -  
 72
    65
 73
     6
 40
40.0
 49
30.0
 49
-2.5
 49
1.25
 49
-2.5
 49
1.25
 49
-2.5
  0
LTYPE
  2
LONG3
 70
    64
  3
+++++++++++++++..+++++++++++++++
 72
    65
 73
     2
 40
40.0
 49
37.5
 49
-2.5
  0
LTYPE
  2
LONG4
 70
    64
  3
+++++++++++++++..+++++++++++++++
 72
    65
 73
     2
 40
80.0
 49
75.0
 49
-5.0
  0
LTYPE
  2
LONG5
 70
    64
  3
----------  --  ----------  --  
 72
    65
 73
     4
 40
60.0
 49
37.5
 49
-7.5
 49
7.5
 49
-7.5
  0
LTYPE
  2
dashed
 70
   64
  3
-------   -------------   ------
 72
   65
 73
    2
 40
7.5
 49
6
 49
-1.5
  0
LTYPE
  2
dashed_spaced
 70
   64
  3
----        --------        ----
 72
   65
 73
    2
 40
12
 49
6
 49
-6
  0
LTYPE
  2
long_dashed_dotted
 70
   64
  3
------------- --- --------------
 72
   65
 73
    4
 40
15.25
 49
12
 49
-1.5
 49
0.25
 49
-1.5
  0
LTYPE
  2
long_dashed_double-dotted
 70
   64
  3
----------- --- --- ------------
 72
   65
 73
    6
 40
17
 49
12
 49
-1.5
 49
0.25
 49
-1.5
 49
0.25
 49
-1.5
  0
LTYPE
  2
long_dashed_triplicate-dotted
 70
   64
  3
--------- --- --- --- ----------
 72
   65
 73
    8
 40
18.75
 49
12
 49
-1.5
 49
0.25
 49
-1.5
 49
0.25
 49
-1.5
 49
0.25
 49
-1.5
  0
LTYPE
  2
dotted
 70
   64
  3
   -       -       -       -    
 72
   65
 73
    2
 40
1.75
 49
0.25
 49
-1.5
  0
LTYPE
  2
chain
 70
   64
  3
-------------- -- --------------
 72
   65
 73
    4
 40
18.5
 49
12
 49
-1.5
 49
3.5
 49
-1.5
  0
LTYPE
  2
chain_double_dash
 70
   64
  3
------------ -- -- -------------
 72
   65
 73
    6
 40
23.5
 49
12
 49
-1.5
 49
3.5
 49
-1.5
 49
3.5
 49
-1.5
  0
LTYPE
  2
dashed_dotted
 70
   64
  3
-----------     -     ----------
 72
   65
 73
    4
 40
9.25
 49
6
 49
-1.5
 49
0.25
 49
-1.5
  0
LTYPE
  2
double-dashed_dotted
 70
   64
  3
------   -----------   -   -----
 72
   65
 73
    6
 40
16.75
 49
6
 49
-1.5
 49
6
 49
-1.5
 49
0.25
 49
-1.5
  0
LTYPE
  2
dashed_double-dotted
 70
   64
  3
---------    -    -    ---------
 72
   65
 73
    6
 40
11
 49
6
 49
-1.5
 49
0.25
 49
-1.5
 49
0.25
 49
-1.5
  0
LTYPE
  2
double-dashed_double-dotted
 70
   64
  3
-----   ---------   -   -   ----
 72
   65
 73
    8
 40
18.5
 49
6
 49
-1.5
 49
6
 49
-1.5
 49
0.25
 49
-1.5
 49
0.25
 49
-1.5
  0
LTYPE
  2
dashed_triplicate-dotted
 70
   64
  3
-------    -    -    -    ------
 72
   65
 73
    8
 40
12.75
 49
6
 49
-1.5
 49
0.25
 49
-1.5
 49
0.25
 49
-1.5
 49
0.25
 49
-1.5
  0
LTYPE
  2
double-dashed_triplicate-dotted
 70
   64
  3
-----  ---------  -  -  -  -----
 72
   65
 73
   10
 40
20.25
 49
6
 49
-1.5
 49
6
 49
-1.5
 49
0.25
 49
-1.5
 49
0.25
 49
-1.5
 49
0.25
 49
-1.5
  0
LTYPE
  2
undefined
 70
   64
  3
--------------------------------
 72
   65
 73
    0
 40
0
  0
ENDTAB
  0
TABLE
  2
STYLE
  5
3
100
AcDbSymbolTable
 70
     1
  0
STYLE
  5
10
100
AcDbSymbolTableRecord
100
AcDbTextStyleTableRecord
  2
STANDARD
 70
     0
 40
0.0
 41
1.0
 50
0.0
 71
     0
 42
0.2
  3
txt
  4
bigfont.shx
  0
STYLE
  5
26
100
AcDbSymbolTableRecord
100
AcDbTextStyleTableRecord
  2
TATEGAKI
 70
    68
 40
0.0
 41
1.0
 50
0.0
 71
     0
 42
1.0
  3
txt
  4
bigfont.shx
  0
ENDTAB
  0
TABLE
  2
LAYER
 70
   10
  0
LAYER
  2
_0-0_1
 70
   64
 62
    7
  6
CONTINUOUS
  0
LAYER
  2
_0-1_2
 70
   64
 62
    7
  6
CONTINUOUS
  0
LAYER
  2
_0-2_3
 70
   64
 62
    7
  6
CONTINUOUS
  0
LAYER
  2
_0-3_4
 70
   64
 62
    7
  6
CONTINUOUS
  0
LAYER
  2
_0-4_5
 70
   64
 62
    7
  6
CONTINUOUS
  0
LAYER
  2
_0-5_6
 70
   64
 62
    7
  6
CONTINUOUS
  0
LAYER
  2
_0-7_8
 70
   64
 62
    7
  6
CONTINUOUS
  0
LAYER
  2
_0-8_9
 70
   64
 62
    7
  6
CONTINUOUS
  0
LAYER
  2
_0-a_0
 70
   64
 62
    7
  6
CONTINUOUS
  0
LAYER
  2
ADD_LINE
 70
   64
 62
    7
  6
CONTINUOUS
  0
ENDTAB
  0
ENDSEC
  0
SECTION
  2
BLOCKS
  0
BLOCK
  2
-000-BK1
 70
   64
 10
0
 20
0
 30
0
  0
LINE
  8
_0-2_3
  6
CONTINUOUS
 62
    3
 10
6233.6913170501903
 20
5944.5985401459702
 11
6140.6913170501903
 21
6105.6792652498698
  0
LINE
  8
_0-2_3
  6
CONTINUOUS
 62
    3
 10
6140.6913170501903
 20
6105.6792652498698
 11
5979.6105919462798
 21
6198.6792652498798
  0
LINE
  8
_0-2_3
  6
CONTINUOUS
 62
    3
 10
5979.6105919462798
 20
6198.6792652498798
 11
5793.6105919462898
 21
6198.6792652498798
  0
LINE
  8
_0-2_3
  6
CONTINUOUS
 62
    3
 10
5793.6105919462898
 20
6198.6792652498798
 11
5632.5298668423802
 21
6105.6792652498698
  0
LINE
  8
_0-2_3
  6
CONTINUOUS
 62
    3
 10
5632.5298668423802
 20
6105.6792652498698
 11
5539.5298668423802
 21
5944.5985401459802
  0
LINE
  8
_0-2_3
  6
CONTINUOUS
 62
    3
 10
5539.5298668423802
 20
5944.5985401459802
 11
5539.5298668423802
 21
5758.5985401459693
  0
LINE
  8
_0-2_3
  6
CONTINUOUS
 62
    3
 10
5539.5298668423802
 20
5758.5985401459693
 11
5632.5298668423802
 21
5597.5178150420697
  0
LINE
  8
_0-2_3
  6
CONTINUOUS
 62
    3
 10
5632.5298668423802
 20
5597.5178150420697
 11
5793.6105919462898
 21
5504.5178150420597
  0
LINE
  8
_0-2_3
  6
CONTINUOUS
 62
    3
 10
5793.6105919462898
 20
5504.5178150420597
 11
5979.6105919462798
 21
5504.5178150420597
  0
LINE
  8
_0-2_3
  6
CONTINUOUS
 62
    3
 10
5979.6105919462798
 20
5504.5178150420597
 11
6140.6913170501903
 21
5597.5178150420597
  0
LINE
  8
_0-2_3
  6
CONTINUOUS
 62
    3
 10
6140.6913170501903
 20
5597.5178150420597
 11
6233.6913170501903
 21
5758.5985401459693
  0
LINE
  8
_0-2_3
  6
CONTINUOUS
 62
    3
 10
6233.6913170501903
 20
5758.5985401459693
 11
6233.6913170501903
 21
5944.5985401459702
  0
ENDBLK
  0
BLOCK
  2
-001-BK2
 70
   64
 10
0
 20
0
 30
0
  0
LINE
  8
_0-0_1
  6
CONTINUOUS
 62
    7
 10
2430.5080291970798
 20
6351.5985401459502
 11
2080.5080291970798
 21
6351.5985401459602
  0
LINE
  8
_0-0_1
  6
CONTINUOUS
 62
    7
 10
2580.5080291970798
 20
6421.5985401459402
 11
2500.5080291970798
 21
6421.5985401459402
  0
ENDBLK
  0
BLOCK
  2
-002-BK3
 70
   64
 10
0
 20
0
 30
0
  0
LINE
  8
_0-0_1
  6
CONTINUOUS
 62
    7
 10
2500.5080291970798
 20
6471.5985401459502
 11
2430.5080291970798
 21
6471.5985401459502
  0
LINE
  8
_0-0_1
  6
CONTINUOUS
 62
    7
 10
2650.5080291970798
 20
6471.5985401459502
 11
2580.5080291970798
 21
6471.5985401459502
  0
ENDBLK
  0
BLOCK
  2
-003-BK4
 70
   64
 10
0
 20
0
 30
0
  0
LINE
  8
_0-0_1
  6
CONTINUOUS
 62
    7
 10
2430.5080291970698
 20
5231.5985401459502
 11
2500.5080291970698
 21
5231.5985401459502
  0
LINE
  8
_0-0_1
  6
CONTINUOUS
 62
    7
 10
2580.5080291970698
 20
5231.5985401459502
 11
2650.5080291970698
 21
5231.5985401459502
  0
ENDBLK
  0
BLOCK
  2
-004-BK5
 70
   64
 10
0
 20
0
 30
0
  0
LINE
  8
_0-0_1
  6
CONTINUOUS
 62
    7
 10
2650.5080291970798
 20
5551.5985401459502
 11
2720.5080291970698
 21
5551.5985401459311
  0
LINE
  8
_0-0_1
  6
CONTINUOUS
 62
    7
 10
2360.5080291970698
 20
5551.5985401459602
 11
2430.5080291970698
 21
5551.5985401459502
  0
ENDBLK
  0
BLOCK
  2
-005-BK6
 70
   64
 10
0
 20
0
 30
0
  0
LINE
  8
_0-2_3
  6
CONTINUOUS
 62
    3
 10
6506.4166755557599
 20
5594.7441538212006
 11
6506.5031550349704
 21
6108.2441465391203
  0
LINE
  8
_0-2_3
  6
CONTINUOUS
 62
    3
 10
6506.5031550349704
 20
6108.2441465391203
 11
6143.4649782710803
 21
6471.4046237553803
  0
LINE
  8
_0-2_3
  6
CONTINUOUS
 62
    3
 10
6143.4649782710803
 20
6471.4046237553803
 11
5629.9649855531597
 21
6471.4911032346008
  0
LINE
  8
_0-2_3
  6
CONTINUOUS
 62
    3
 10
5629.9649855531597
 20
6471.4911032346008
 11
5266.8045083368897
 21
6108.4529264706998
  0
LINE
  8
_0-2_3
  6
CONTINUOUS
 62
    3
 10
5266.8045083368897
 20
6108.4529264706998
 11
5266.7180288576801
 21
5594.9529337527911
  0
LINE
  8
_0-2_3
  6
CONTINUOUS
 62
    3
 10
5266.7180288576801
 20
5594.9529337527911
 11
5413.6022143135096
 21
5448.0192658913093
  0
LINE
  8
_0-2_3
  6
CONTINUOUS
 62
    3
 10
6359.6189695791309
 20
5447.9958844627508
 11
6506.4166755557599
 21
5594.7441538212006
  0
LINE
  8
_0-6_7
  6
DASHED3
 62
    3
 10
5413.6022143135096
 20
5448.0192658913093
 11
5629.7562056215802
 21
5231.7924565365211
  0
LINE
  8
_0-6_7
  6
DASHED3
 62
    3
 10
5629.7562056215702
 20
5231.7924565365211
 11
6143.2561983394899
 21
5231.7059770573096
  0
LINE
  8
_0-6_7
  6
DASHED3
 62
    3
 10
6143.2561983394899
 20
5231.7059770573096
 11
6359.6189695791309
 21
5447.9958844627508
  0
ENDBLK
  0
BLOCK
  2
-006-BK8
 70
   64
 10
0
 20
0
 30
0
  0
LINE
  8
_0-0_1
  6
CONTINUOUS
 62
    7
 10
1638.0629038253501
 20
4926.5985401459502
 11
1671.66290382535
 21
4926.5985401459502
  0
LINE
  8
_0-0_1
  6
CONTINUOUS
 62
    7
 10
1671.66290382535
 20
4926.5985401459502
 11
1654.86290382535
 21
4826.5985401459502
  0
LINE
  8
_0-0_1
  6
CONTINUOUS
 62
    7
 10
1654.86290382535
 20
4826.5985401459502
 11
1638.0629038253501
 21
4926.5985401459502
  0
ENDBLK
  0
BLOCK
  2
-007-BK9
 70
   64
 10
0
 20
0
 30
0
  0
LINE
  8
_0-0_1
  6
CONTINUOUS
 62
    7
 10
1671.66290382535
 20
4751.5985401459502
 11
1638.0629038253501
 21
4751.5985401459502
  0
LINE
  8
_0-0_1
  6
CONTINUOUS
 62
    7
 10
1638.0629038253501
 20
4751.5985401459502
 11
1654.86290382535
 21
4851.5985401459502
  0
LINE
  8
_0-0_1
  6
CONTINUOUS
 62
    7
 10
1654.86290382535
 20
4851.5985401459502
 11
1671.66290382535
 21
4751.5985401459502
  0
ENDBLK
  0
BLOCK
  2
-008-BK7
 70
   64
 10
0
 20
0
 30
0
  0
LINE
  8
_0-0_1
  6
CONTINUOUS
 62
    7
 10
1654.86290382535
 20
4826.5985401459502
 11
1760.8978963909101
 21
4826.5985401459502
  0
LINE
  8
_0-0_1
  6
CONTINUOUS
 62
    7
 10
1654.86290382535
 20
4851.5985401459502
 11
1760.8978963909101
 21
4851.5985401459502
  0
TEXT
  8
_0-8_9
 62
    7
 10
1671.4386861313901
 20
4939.2251824817104
 40
120
 41
1.06666666666667
 50
90
  1
25
  0
LINE
  8
_0-0_1
  6
CONTINUOUS
 62
    7
 10
1654.86290382535
 20
4826.5985401459502
 11
1654.86290382535
 21
4851.5985401459502
  0
INSERT
  2
-006-BK8
  8
_0-a_0
 10
0
 20
0
 41
1
 42
1
 50
0
  0
INSERT
  2
-007-BK9
  8
_0-a_0
 10
0
 20
0
 41
1
 42
1
 50
0
  0
ENDBLK
  0
BLOCK
  2
-009-BK10
 70
   64
 10
0
 20
0
 30
0
  0
LINE
  8
_0-0_1
  6
CONTINUOUS
 62
    7
 10
2500.5080291970798
 20
9090.7102553054792
 11
2430.5080291970798
 21
9090.7102553054701
  0
LINE
  8
_0-0_1
  6
CONTINUOUS
 62
    7
 10
2650.5080291970798
 20
9090.7102553054592
 11
2580.5080291970798
 21
9090.7102553054701
  0
ENDBLK
  0
BLOCK
  2
-010-BK11
 70
   64
 10
0
 20
0
 30
0
  0
LINE
  8
_0-0_1
  6
CONTINUOUS
 62
    7
 10
2430.5080291970899
 20
8940.7102553054592
 11
2110.5080291970798
 21
8940.7102553054792
  0
LINE
  8
_0-0_1
  6
CONTINUOUS
 62
    7
 10
2580.5080291970798
 20
9040.7102553054592
 11
2500.5080291970798
 21
9040.7102553054592
  0
ENDBLK
  0
BLOCK
  2
-011-BK12
 70
   64
 10
0
 20
0
 30
0
  0
LINE
  8
_0-0_1
  6
CONTINUOUS
 62
    7
 10
2580.5080291970798
 20
7790.7102553054401
 11
2650.5080291970798
 21
7790.7102553054592
  0
LINE
  8
_0-0_1
  6
CONTINUOUS
 62
    7
 10
2430.5080291970798
 20
7790.7102553054701
 11
2500.5080291970798
 21
7790.7102553054901
  0
ENDBLK
  0
BLOCK
  2
-012-BK13
 70
   64
 10
0
 20
0
 30
0
  0
CIRCLE
  8
_0-0_1
  6
CONTINUOUS
 62
    7
 10
6454.9726277372201
 20
6090.7578467152889
 40
12
  0
LINE
  8
_0-0_1
  6
CONTINUOUS
 62
    7
 10
6454.9726277372201
 20
6090.7578467152889
 11
6581.2728094621298
 21
6309.5161784680304
  0
LINE
  8
_0-0_1
  6
CONTINUOUS
 62
    7
 10
6581.2728094621298
 20
6309.5161784680304
 11
6655.1470802919612
 21
6309.5161784680304
  0
ENDBLK
  0
BLOCK
  2
-013-BK14
 70
   64
 10
0
 20
0
 30
0
  0
LINE
  8
_0-0_1
  6
CONTINUOUS
 62
    7
 10
5024.5620437956204
 20
9222.3291970802602
 11
7064.5620437956204
 21
9222.3291970802602
  0
LINE
  8
_0-0_1
  6
CONTINUOUS
 62
    7
 10
7064.5620437956204
 20
9222.3291970802602
 11
7064.5620437956204
 21
7822.3291970802602
  0
LINE
  8
_0-0_1
  6
CONTINUOUS
 62
    7
 10
7064.5620437956204
 20
7822.3291970802602
 11
5024.5620437956204
 21
7822.3291970802602
  0
LINE
  8
_0-0_1
  6
CONTINUOUS
 62
    7
 10
5024.5620437956204
 20
7822.3291970802602
 11
5024.5620437956204
 21
9222.3291970802602
  0
ENDBLK
  0
ENDSEC
  0
SECTION
  2
ENTITIES
  0
LINE
  8
ADD_LINE
  6
DOT
 62
    3
 10
9426.5058245492219
 20
8405.6277042842303
 11
2226.5058245492196
 21
8405.6277042842303
  0
LINE
  8
ADD_LINE
  6
DOT
 62
    3
 10
9426.5058245492219
 20
8405.6277042842303
 11
9426.5058245492019
 21
-1514.3726256355694
  0
LINE
  8
ADD_LINE
  6
DOT
 62
    3
 10
2226.5058245492196
 20
8405.6277042842303
 11
2226.5058245492196
 21
-2314.3726256355703
  0
LINE
  8
_0-1_2
  6
CONTINUOUS
 62
    2
 10
9426.5058245492219
 20
8405.6277042842303
 11
2226.5058245492178
 21
8405.6277042842303
  0
LINE
  8
_0-1_2
  6
CONTINUOUS
 62
    2
 10
9426.5058245492219
 20
8005.6273743644315
 11
2226.5058245492178
 21
8005.6273743644315
  0
LINE
  8
_0-5_6
  6
DASHED1
 62
    3
 10
9426.5058245492219
 20
8405.6277042842303
 11
9426.5058245492019
 21
-1514.3726256356092
  0
LINE
  8
_0-5_6
  6
DASHED1
 62
    3
 10
2226.5058245492178
 20
8405.6277042842303
 11
2226.5058245492178
 21
-2314.3726256356067
  0
LINE
  8
_0-0_1
  6
CONTINUOUS
 62
    7
 10
8259.1950564899435
 20
8405.6277042842303
 11
8259.1950564899525
 21
8005.6273743644315
  0
LINE
  8
_0-4_5
  6
CENTER1
 62
    1
 10
3177.7041400638327
 20
1944.2853434047811
 11
8769.4917233000015
 21
1944.2853434047811
  0
LINE
  8
_0-4_5
  6
CENTER1
 62
    1
 10
3177.7041400638327
 20
3199.2853434047811
 11
8684.7617962927034
 21
3199.2853434047811
  0
LINE
  8
_0-0_1
  6
CONTINUOUS
 62
    7
 10
3736.7092415481729
 20
2174.2853434047811
 11
5836.7092415481529
 21
2174.2853434047811
  0
LINE
  8
_0-0_1
  6
CONTINUOUS
 62
    7
 10
3936.7092415481729
 20
2199.2853434047811
 11
4726.709241548182
 21
2199.2853434047811
  0
LINE
  8
_0-4_5
  6
CENTER1
 62
    1
 10
7702.811804297412
 20
4099.2853434048011
 11
7702.811804297412
 21
1394.2853434048016
  0
CIRCLE
  8
_0-0_1
  6
CONTINUOUS
 62
    7
 10
7702.811804297412
 20
3199.2853434048016
 40
100
  0
CIRCLE
  8
_0-0_1
  6
CONTINUOUS
 62
    7
 10
7702.811804297412
 20
3199.2853434048016
 40
225
  0
CIRCLE
  8
_0-4_5
  6
CENTER1
 62
    1
 10
7702.811804297412
 20
3199.2853434048016
 40
446.18302831047799
  0
CIRCLE
  8
_0-4_5
  6
CENTER1
 62
    1
 10
7702.811804297412
 20
3199.2853434048016
 40
25
  0
LINE
  8
_0-4_5
  6
CENTER1
 62
    1
 10
7975.9033184526543
 20
3672.2937210375912
 11
7429.7202901421724
 21
2726.2769657720119
  0
LINE
  8
_0-4_5
  6
CENTER1
 62
    1
 10
8175.820181930203
 20
3472.3768575600411
 11
7229.8034266646118
 21
2926.1938292495711
  0
LINE
  8
_0-4_5
  6
CENTER1
 62
    1
 10
7229.8034266646118
 20
3472.3768575600411
 11
8175.8201819301921
 21
2926.1938292495506
  0
LINE
  8
_0-4_5
  6
CENTER1
 62
    1
 10
7429.7202901421724
 20
3672.2937210375912
 11
7975.9033184526425
 21
2726.2769657720119
  0
INSERT
  2
-000-BK1
  8
_0-a_0
 10
1816.2012123511026
 20
-2652.3131967411691
 41
1
 42
1
 50
0
  0
LINE
  8
_0-2_3
  6
CONTINUOUS
 62
    3
 10
8049.8925294012934
 20
3292.2853434048011
 11
8222.3201819302121
 21
3391.8364950081104
  0
LINE
  8
_0-2_3
  6
CONTINUOUS
 62
    3
 10
7956.8925294012934
 20
3453.3660685087011
 11
8129.320181930193
 21
3552.9172201119909
  0
LINE
  8
_0-2_3
  6
CONTINUOUS
 62
    3
 10
7956.8925294012934
 20
3453.3660685087011
 11
8056.4436810045827
 21
3625.7937210375917
  0
LINE
  8
_0-2_3
  6
CONTINUOUS
 62
    3
 10
7795.811804297382
 20
3546.3660685087107
 11
7895.3629559006822
 21
3718.7937210376012
  0
LINE
  8
_0-2_3
  6
CONTINUOUS
 62
    3
 10
7795.811804297382
 20
3546.3660685087107
 11
7795.811804297382
 21
3745.4683717152911
  0
LINE
  8
_0-2_3
  6
CONTINUOUS
 62
    3
 10
7609.811804297392
 20
3546.3660685087107
 11
7609.811804297362
 21
3745.4683717152911
  0
LINE
  8
_0-2_3
  6
CONTINUOUS
 62
    3
 10
7609.811804297392
 20
3546.3660685087107
 11
7510.2606526941217
 21
3718.7937210375912
  0
LINE
  8
_0-2_3
  6
CONTINUOUS
 62
    3
 10
7448.7310791934833
 20
3453.3660685087011
 11
7349.1799275902031
 21
3625.7937210375812
  0
LINE
  8
_0-2_3
  6
CONTINUOUS
 62
    3
 10
7448.7310791934833
 20
3453.3660685087011
 11
7276.3034266646127
 21
3552.9172201119909
  0
LINE
  8
_0-2_3
  6
CONTINUOUS
 62
    3
 10
7355.7310791934833
 20
3292.2853434048111
 11
7183.3034266646428
 21
3391.8364950080718
  0
LINE
  8
_0-2_3
  6
CONTINUOUS
 62
    3
 10
7355.7310791934833
 20
3292.2853434048111
 11
7156.6287759869119
 21
3292.2853434048216
  0
LINE
  8
_0-2_3
  6
CONTINUOUS
 62
    3
 10
7355.7310791934833
 20
3106.2853434048011
 11
7156.6287759869419
 21
3106.2853434048011
  0
LINE
  8
_0-2_3
  6
CONTINUOUS
 62
    3
 10
7355.7310791934833
 20
3106.2853434048011
 11
7183.3034266646137
 21
3006.7341918015209
  0
LINE
  8
_0-2_3
  6
CONTINUOUS
 62
    3
 10
7448.7310791934833
 20
2945.2046183009006
 11
7276.3034266646218
 21
2845.6534666976122
  0
LINE
  8
_0-2_3
  6
CONTINUOUS
 62
    3
 10
7448.7310791934833
 20
2945.2046183009006
 11
7349.1799275902031
 21
2772.776965772031
  0
LINE
  8
_0-2_3
  6
CONTINUOUS
 62
    3
 10
7609.811804297392
 20
2852.2046183008911
 11
7510.2606526941127
 21
2679.776965772021
  0
LINE
  8
_0-2_3
  6
CONTINUOUS
 62
    3
 10
7609.811804297392
 20
2852.2046183008911
 11
7609.811804297392
 21
2653.1023150943511
  0
LINE
  8
_0-2_3
  6
CONTINUOUS
 62
    3
 10
7795.811804297382
 20
2852.2046183008911
 11
7795.811804297382
 21
2653.102315094301
  0
LINE
  8
_0-2_3
  6
CONTINUOUS
 62
    3
 10
7795.811804297382
 20
2852.2046183008911
 11
7895.3629559006731
 21
2679.7769657720019
  0
LINE
  8
_0-2_3
  6
CONTINUOUS
 62
    3
 10
7956.8925294012934
 20
2945.2046183008906
 11
8056.4436810045918
 21
2772.776965772031
  0
LINE
  8
_0-2_3
  6
CONTINUOUS
 62
    3
 10
7956.8925294012934
 20
2945.2046183008906
 11
8129.320181930193
 21
2845.6534666975913
  0
LINE
  8
_0-2_3
  6
CONTINUOUS
 62
    3
 10
8049.8925294012934
 20
3106.2853434048011
 11
8222.3201819301721
 21
3006.7341918015209
  0
LINE
  8
_0-2_3
  6
CONTINUOUS
 62
    3
 10
8049.8925294012934
 20
3292.2853434048011
 11
8248.9948326078611
 21
3292.2853434047911
  0
LINE
  8
_0-2_3
  6
CONTINUOUS
 62
    3
 10
8049.8925294012934
 20
3106.2853434048011
 11
8248.9948326078738
 21
3106.2853434047815
  0
LINE
  8
_0-2_3
  6
CONTINUOUS
 62
    3
 10
7156.6287759869119
 20
3292.2853434048216
 11
7156.6287759869419
 21
3106.2853434048011
  0
CIRCLE
  8
_0-0_1
  6
CONTINUOUS
 62
    7
 10
7256.6287759869419
 20
3199.2853434048016
 40
93.514900902639795
  0
CIRCLE
  8
_0-0_1
  6
CONTINUOUS
 62
    7
 10
7316.4059670430725
 20
2976.1938292495606
 40
93.514900902639795
  0
CIRCLE
  8
_0-0_1
  6
CONTINUOUS
 62
    7
 10
7479.7202901421724
 20
2812.8795061504516
 40
93.514900902639795
  0
CIRCLE
  8
_0-0_1
  6
CONTINUOUS
 62
    7
 10
7702.811804297412
 20
2753.1023150943315
 40
93.514900902639795
  0
CIRCLE
  8
_0-0_1
  6
CONTINUOUS
 62
    7
 10
7925.9033184526425
 20
2812.8795061504516
 40
93.514900902639795
  0
CIRCLE
  8
_0-0_1
  6
CONTINUOUS
 62
    7
 10
8089.2176415517515
 20
2976.1938292495506
 40
93.514900902639795
  0
CIRCLE
  8
_0-0_1
  6
CONTINUOUS
 62
    7
 10
8148.9948326078938
 20
3199.2853434048016
 40
93.514900902639795
  0
CIRCLE
  8
_0-0_1
  6
CONTINUOUS
 62
    7
 10
8089.2176415517633
 20
3422.3768575600411
 40
93.514900902639795
  0
CIRCLE
  8
_0-0_1
  6
CONTINUOUS
 62
    7
 10
7925.9033184526543
 20
3585.6911806591406
 40
93.514900902639795
  0
CIRCLE
  8
_0-0_1
  6
CONTINUOUS
 62
    7
 10
7702.811804297412
 20
3645.4683717152911
 40
93.514900902639795
  0
CIRCLE
  8
_0-0_1
  6
CONTINUOUS
 62
    7
 10
7479.7202901421724
 20
3585.6911806591406
 40
93.514900902639795
  0
CIRCLE
  8
_0-0_1
  6
CONTINUOUS
 62
    7
 10
7316.4059670430634
 20
3422.3768575600411
 40
93.514900902639795
  0
LINE
  8
_0-2_3
  6
CONTINUOUS
 62
    3
 10
8056.4436810045827
 20
3625.7937210375917
 11
7895.3629559006822
 21
3718.7937210376012
  0
LINE
  8
_0-2_3
  6
CONTINUOUS
 62
    3
 10
7795.811804297382
 20
3745.4683717152911
 11
7609.811804297362
 21
3745.4683717152911
  0
LINE
  8
_0-2_3
  6
CONTINUOUS
 62
    3
 10
7510.2606526941217
 20
3718.7937210375912
 11
7349.1799275902031
 21
3625.7937210375812
  0
LINE
  8
_0-2_3
  6
CONTINUOUS
 62
    3
 10
7276.3034266646127
 20
3552.9172201119909
 11
7183.3034266646428
 21
3391.8364950080718
  0
LINE
  8
_0-2_3
  6
CONTINUOUS
 62
    3
 10
7183.3034266646137
 20
3006.7341918015209
 11
7276.3034266646218
 21
2845.6534666976122
  0
LINE
  8
_0-2_3
  6
CONTINUOUS
 62
    3
 10
7349.1799275902031
 20
2772.776965772031
 11
7510.2606526941127
 21
2679.776965772021
  0
LINE
  8
_0-2_3
  6
CONTINUOUS
 62
    3
 10
7609.811804297392
 20
2653.1023150943511
 11
7795.811804297382
 21
2653.102315094301
  0
LINE
  8
_0-2_3
  6
CONTINUOUS
 62
    3
 10
7895.3629559006731
 20
2679.7769657720019
 11
8056.4436810045918
 21
2772.776965772031
  0
LINE
  8
_0-2_3
  6
CONTINUOUS
 62
    3
 10
8129.320181930193
 20
2845.6534666975913
 11
8222.3201819301721
 21
3006.7341918015209
  0
LINE
  8
_0-2_3
  6
CONTINUOUS
 62
    3
 10
8248.9948326078738
 20
3106.2853434047815
 11
8248.9948326078611
 21
3292.2853434047911
  0
LINE
  8
_0-2_3
  6
CONTINUOUS
 62
    3
 10
8222.3201819302121
 20
3391.8364950081104
 11
8129.320181930193
 21
3552.9172201119909
  0
LINE
  8
_0-0_1
  6
CONTINUOUS
 62
    7
 10
3896.7092415481829
 20
3699.2853434047911
 11
3896.7092415481729
 21
2699.2853434047811
  0
LINE
  8
_0-0_1
  6
CONTINUOUS
 62
    7
 10
3896.7092415481729
 20
2699.2853434047811
 11
4176.7092415481829
 21
2699.2853434047811
  0
INSERT
  2
-001-BK2
  8
_0-a_0
 10
1816.2012123511026
 20
-2652.3131967411691
 41
1
 42
1
 50
0
  0
INSERT
  2
-002-BK3
  8
_0-a_0
 10
1816.2012123511026
 20
-2652.3131967411691
 41
1
 42
1
 50
0
  0
INSERT
  2
-003-BK4
  8
_0-a_0
 10
1816.2012123511026
 20
-2652.3131967411691
 41
1
 42
1
 50
0
  0
INSERT
  2
-004-BK5
  8
_0-a_0
 10
1816.2012123511026
 20
-2652.3131967411691
 41
1
 42
1
 50
0
  0
LINE
  8
_0-0_1
  6
CONTINUOUS
 62
    7
 10
4576.709241548182
 20
3699.2853434047811
 11
4466.709241548182
 21
3699.2853434047811
  0
ARC
  8
_0-0_1
  6
CONTINUOUS
 62
    7
 10
6016.7092415481829
 20
3690.1944343138712
 40
81.818181818181998
 50
270
 51
90
  0
ARC
  8
_0-0_1
  6
CONTINUOUS
 62
    7
 10
6016.7092415481829
 20
3362.9217070411405
 40
81.818181818181998
 50
270
 51
90
  0
ARC
  8
_0-0_1
  6
CONTINUOUS
 62
    7
 10
6016.7092415481829
 20
3035.6489797684208
 40
81.818181818181998
 50
270
 51
90
  0
ARC
  8
_0-0_1
  6
CONTINUOUS
 62
    7
 10
6016.7092415481829
 20
2708.376252495691
 40
81.818181818181998
 50
270
 51
90
  0
ARC
  8
_0-0_1
  6
CONTINUOUS
 62
    7
 10
6016.7092415481829
 20
3199.2853434047811
 40
81.818181818181998
 50
90
 51
270
  0
ARC
  8
_0-0_1
  6
CONTINUOUS
 62
    7
 10
6016.7092415481829
 20
3526.5580706775108
 40
81.818181818181998
 50
90
 51
270
  0
ARC
  8
_0-0_1
  6
CONTINUOUS
 62
    7
 10
6016.7092415481829
 20
3853.8307979502406
 40
81.818181818181998
 50
89.999999999999687
 51
270
  0
ARC
  8
_0-0_1
  6
CONTINUOUS
 62
    7
 10
6016.7092415481829
 20
2872.0126161320504
 40
81.818181818181998
 50
90
 51
270
  0
ARC
  8
_0-0_1
  6
CONTINUOUS
 62
    7
 10
6016.7092415481829
 20
2544.7398888593207
 40
81.8181818181816
 50
90
 51
270
  0
LINE
  8
_0-0_1
  6
CONTINUOUS
 62
    7
 10
7202.811804297412
 20
2174.2853434047811
 11
8202.811804297402
 21
2174.2853434047811
  0
LINE
  8
_0-0_1
  6
CONTINUOUS
 62
    7
 10
7202.8118042974238
 20
2199.2853434047811
 11
8202.8118042974129
 21
2199.2853434047811
  0
INSERT
  2
-005-BK6
  8
_0-a_0
 10
1816.2012123511026
 20
-2652.3131967411691
 41
1
 42
1
 50
0
  0
LINE
  8
_0-0_1
  6
CONTINUOUS
 62
    7
 10
4176.7092415481729
 20
2269.2853434047811
 11
4176.7092415481729
 21
2899.2853434047911
  0
LINE
  8
_0-0_1
  6
CONTINUOUS
 62
    7
 10
4536.7092415481729
 20
2899.285343404762
 11
4536.7092415481729
 21
2269.2853434047811
  0
LINE
  8
_0-0_1
  6
CONTINUOUS
 62
    7
 10
4126.7092415481729
 20
2269.2853434047811
 11
4586.7092415481429
 21
2269.2853434047811
  0
LINE
  8
_0-0_1
  6
CONTINUOUS
 62
    7
 10
4586.7092415481429
 20
2269.2853434047811
 11
4586.709241548182
 21
2199.2853434047911
  0
LINE
  8
_0-0_1
  6
CONTINUOUS
 62
    7
 10
4126.7092415481729
 20
2199.2853434047811
 11
4126.7092415481729
 21
2269.2853434047811
  0
LINE
  8
_0-0_1
  6
CONTINUOUS
 62
    7
 10
3736.7092415481729
 20
2174.2853434047811
 11
3736.7092415481829
 21
1944.2853434047811
  0
LINE
  8
_0-0_1
  6
CONTINUOUS
 62
    7
 10
3806.7092415481729
 20
2174.2853434047811
 11
3806.7092415481829
 21
1944.2853434047811
  0
LINE
  8
_0-0_1
  6
CONTINUOUS
 62
    7
 10
3736.7092415481729
 20
2104.2853434047811
 11
5836.7092415481729
 21
2104.2853434047811
  0
LINE
  8
_0-0_1
  6
CONTINUOUS
 62
    7
 10
3736.7092415481729
 20
2004.2853434047811
 11
5836.7092415481829
 21
2004.2853434047811
  0
LINE
  8
_0-0_1
  6
CONTINUOUS
 62
    7
 10
5836.7092415481529
 20
2174.2853434047811
 11
5836.7092415481829
 21
1944.2853434047913
  0
LINE
  8
_0-0_1
  6
CONTINUOUS
 62
    7
 10
4726.7092415481729
 20
2044.2853434047811
 11
3936.7092415481729
 21
2044.2853434047811
  0
LINE
  8
_0-0_1
  6
CONTINUOUS
 62
    7
 10
3936.7092415481729
 20
2044.2853434047811
 11
3936.7092415481729
 21
2199.2853434047811
  0
LINE
  8
_0-0_1
  6
CONTINUOUS
 62
    7
 10
4036.7092415481729
 20
2044.2853434047811
 11
4036.7092415481829
 21
2439.2853434047811
  0
LINE
  8
_0-0_1
  6
CONTINUOUS
 62
    7
 10
4076.7092415481925
 20
2369.2853434047911
 11
4076.7092415481829
 21
2199.2853434047811
  0
LINE
  8
_0-0_1
  6
CONTINUOUS
 62
    7
 10
3996.7092415481829
 20
2369.2853434047911
 11
3996.7092415481829
 21
2199.2853434047811
  0
LINE
  8
_0-0_1
  6
CONTINUOUS
 62
    7
 10
3996.7092415481829
 20
2369.2853434047911
 11
4076.7092415481925
 21
2369.2853434047911
  0
LINE
  8
_0-0_1
  6
CONTINUOUS
 62
    7
 10
3656.7092415481729
 20
3129.2853434047811
 11
3656.7092415481729
 21
3329.2853434047811
  0
LINE
  8
_0-0_1
  6
CONTINUOUS
 62
    7
 10
3756.7092415481729
 20
3269.2853434047811
 11
3756.7092415481729
 21
3329.2853434047811
  0
LINE
  8
_0-0_1
  6
CONTINUOUS
 62
    7
 10
3876.7092415481729
 20
3129.2853434047911
 11
3876.7092415481729
 21
3269.2853434047811
  0
LINE
  8
_0-0_1
  6
CONTINUOUS
 62
    7
 10
3756.7092415481729
 20
3269.2853434047811
 11
3876.7092415481729
 21
3269.2853434047811
  0
LINE
  8
_0-0_1
  6
CONTINUOUS
 62
    7
 10
3876.7092415481729
 20
3129.2853434047911
 11
3656.7092415481729
 21
3129.2853434047811
  0
LINE
  8
_0-0_1
  6
CONTINUOUS
 62
    7
 10
3656.7092415481729
 20
3329.2853434047811
 11
3756.7092415481729
 21
3329.2853434047811
  0
LINE
  8
_0-0_1
  6
CONTINUOUS
 62
    7
 10
4556.709241548182
 20
3649.2853434047711
 11
4576.709241548182
 21
3649.2853434047811
  0
LINE
  8
_0-0_1
  6
CONTINUOUS
 62
    7
 10
4576.709241548182
 20
2749.2853434047811
 11
4556.709241548182
 21
2749.2853434047811
  0
LINE
  8
_0-0_1
  6
CONTINUOUS
 62
    7
 10
4556.709241548182
 20
2749.2853434047811
 11
4556.709241548182
 21
3649.2853434047711
  0
LINE
  8
_0-0_1
  6
CONTINUOUS
 62
    7
 10
3579.7092415481629
 20
2024.2853434047811
 11
3736.7092415481729
 21
2024.2853434047811
  0
LINE
  8
_0-0_1
  6
CONTINUOUS
 62
    7
 10
3579.7092415481629
 20
2094.2853434047811
 11
3736.7092415481729
 21
2094.2853434047811
  0
INSERT
  2
-008-BK7
  8
_0-a_0
 10
1816.2012123511026
 20
-2652.3131967411691
 41
1
 42
1
 50
0
  0
LINE
  8
_0-0_1
  6
CONTINUOUS
 62
    7
 10
8202.8118042974129
 20
2199.2853434047811
 11
8202.811804297402
 21
2044.2853434048111
  0
LINE
  8
_0-0_1
  6
CONTINUOUS
 62
    7
 10
7202.8118042974238
 20
2199.2853434047811
 11
7202.811804297412
 21
2044.2853434047811
  0
LINE
  8
_0-0_1
  6
CONTINUOUS
 62
    7
 10
7252.811804297412
 20
2004.2853434047811
 11
7252.8118042974329
 21
1944.2853434047811
  0
LINE
  8
_0-0_1
  6
CONTINUOUS
 62
    7
 10
8152.811804297412
 20
2004.2853434047811
 11
8152.8118042974238
 21
1944.2853434047811
  0
LINE
  8
_0-0_1
  6
CONTINUOUS
 62
    7
 10
7252.811804297412
 20
2004.2853434047811
 11
8152.811804297412
 21
2004.2853434047811
  0
LINE
  8
_0-0_1
  6
CONTINUOUS
 62
    7
 10
7202.811804297412
 20
2104.2853434047811
 11
8202.811804297402
 21
2104.2853434047811
  0
LINE
  8
_0-0_1
  6
CONTINUOUS
 62
    7
 10
8062.8118042974029
 20
2044.2853434047811
 11
8062.8118042974029
 21
2104.2853434047811
  0
LINE
  8
_0-0_1
  6
CONTINUOUS
 62
    7
 10
7342.811804297412
 20
2104.2853434047811
 11
7342.811804297412
 21
2044.2853434047811
  0
LINE
  8
_0-0_1
  6
CONTINUOUS
 62
    7
 10
7202.811804297412
 20
2044.2853434047811
 11
7342.811804297462
 21
2044.2853434047811
  0
LINE
  8
_0-0_1
  6
CONTINUOUS
 62
    7
 10
8062.811804297412
 20
2044.2853434047811
 11
8202.811804297402
 21
2044.2853434048111
  0
LINE
  8
_0-0_1
  6
CONTINUOUS
 62
    7
 10
7792.811804297412
 20
2104.2853434047811
 11
7792.8118042975329
 21
2079.2853434047611
  0
LINE
  8
_0-0_1
  6
CONTINUOUS
 62
    7
 10
7612.8118042972819
 20
2079.2853434047715
 11
7612.811804297412
 21
2104.2853434047811
  0
LINE
  8
_0-0_1
  6
CONTINUOUS
 62
    7
 10
7792.811804297442
 20
2029.2853434047811
 11
7792.8118042974238
 21
2004.2853434047811
  0
LINE
  8
_0-0_1
  6
CONTINUOUS
 62
    7
 10
7612.811804297412
 20
2004.2853434047811
 11
7612.811804297462
 21
2029.2853434047715
  0
LINE
  8
_0-0_1
  6
CONTINUOUS
 62
    7
 10
7792.8118042975329
 20
2079.2853434047611
 11
7612.8118042972819
 21
2079.2853434047715
  0
LINE
  8
_0-0_1
  6
CONTINUOUS
 62
    7
 10
7612.811804297462
 20
2029.2853434047715
 11
7792.811804297442
 21
2029.2853434047811
  0
LINE
  8
_0-0_1
  6
CONTINUOUS
 62
    7
 10
7752.811804297412
 20
2079.2853434047911
 11
7752.811804297412
 21
2029.2853434047611
  0
LINE
  8
_0-0_1
  6
CONTINUOUS
 62
    7
 10
7652.811804297412
 20
2029.2853434047611
 11
7652.811804297412
 21
2079.2853434047911
  0
LINE
  8
_0-0_1
  6
CONTINUOUS
 62
    7
 10
7947.811804297412
 20
2174.2853434047811
 11
7947.811804297412
 21
2004.2853434047811
  0
LINE
  8
_0-0_1
  6
CONTINUOUS
 62
    7
 10
7457.811804297412
 20
2004.2853434047811
 11
7457.811804297412
 21
2174.2853434047811
  0
LINE
  8
_0-0_1
  6
CONTINUOUS
 62
    7
 10
7397.811804297412
 20
2004.2853434047811
 11
7397.811804297412
 21
2174.2853434047811
  0
LINE
  8
_0-0_1
  6
CONTINUOUS
 62
    7
 10
8007.811804297412
 20
2174.2853434047811
 11
8007.811804297412
 21
2004.2853434047811
  0
LINE
  8
_0-0_1
  6
CONTINUOUS
 62
    7
 10
8152.8118042974029
 20
2199.2853434047811
 11
8152.811804297412
 21
2886.342150189852
  0
LINE
  8
_0-0_1
  6
CONTINUOUS
 62
    7
 10
7252.811804297412
 20
2199.2853434047811
 11
7252.811804297412
 21
2907.6313092002715
  0
LINE
  8
_0-4_5
  6
CENTER1
 62
    1
 10
3159.0883288014729
 20
5788.397058564291
 11
6493.3678638109432
 21
5788.397058564291
  0
LINE
  8
_0-0_1
  6
CONTINUOUS
 62
    7
 10
4466.709241548182
 20
5138.397058564291
 11
4466.709241548182
 21
6438.397058564291
  0
LINE
  8
_0-0_1
  6
CONTINUOUS
 62
    7
 10
4396.709241548182
 20
5138.397058564271
 11
4396.709241548182
 21
6438.397058564301
  0
LINE
  8
_0-0_1
  6
CONTINUOUS
 62
    7
 10
4316.7092415481829
 20
5138.3970585643219
 11
4316.7092415481829
 21
6438.3970585643101
  0
LINE
  8
_0-0_1
  6
CONTINUOUS
 62
    7
 10
4246.7092415481829
 20
5138.397058564291
 11
4246.7092415481829
 21
6438.397058564301
  0
LINE
  8
_0-0_1
  6
CONTINUOUS
 62
    7
 10
4726.709241548182
 20
5313.397058564291
 11
4726.709241548182
 21
6263.3970585642819
  0
INSERT
  2
-009-BK10
  8
_0-a_0
 10
1816.2012123511026
 20
-2652.3131967411691
 41
1
 42
1
 50
0
  0
INSERT
  2
-010-BK11
  8
_0-a_0
 10
1816.2012123511026
 20
-2652.3131967411691
 41
1
 42
1
 50
0
  0
LINE
  8
_0-0_1
  6
CONTINUOUS
 62
    7
 10
4396.709241548182
 20
5188.397058564301
 11
4316.7092415481829
 21
5188.397058564301
  0
INSERT
  2
-011-BK12
  8
_0-a_0
 10
1816.2012123511026
 20
-2652.3131967411691
 41
1
 42
1
 50
0
  0
LINE
  8
_0-0_1
  6
CONTINUOUS
 62
    7
 10
3926.7092415481829
 20
5288.397058564291
 11
4246.7092415481829
 21
5288.397058564291
  0
LINE
  8
_0-0_1
  6
CONTINUOUS
 62
    7
 10
4726.709241548182
 20
6208.397058564291
 11
5766.7092415481829
 21
6208.397058564291
  0
LINE
  8
_0-0_1
  6
CONTINUOUS
 62
    7
 10
5766.7092415481829
 20
5368.397058564301
 11
4726.709241548182
 21
5368.397058564301
  0
LINE
  8
_0-0_1
  6
CONTINUOUS
 62
    7
 10
4726.709241548182
 20
6028.397058564291
 11
5766.7092415481829
 21
6028.397058564291
  0
LINE
  8
_0-0_1
  6
CONTINUOUS
 62
    7
 10
5766.7092415481829
 20
5548.397058564291
 11
4726.709241548182
 21
5548.397058564291
  0
LINE
  8
_0-0_1
  6
CONTINUOUS
 62
    7
 10
5766.7092415481829
 20
5368.397058564301
 11
5766.7092415481829
 21
6208.397058564291
  0
LINE
  8
_0-0_1
  6
CONTINUOUS
 62
    7
 10
4576.709241548182
 20
6263.3970585642819
 11
4726.709241548182
 21
6263.3970585642819
  0
LINE
  8
_0-0_1
  6
CONTINUOUS
 62
    7
 10
4726.709241548182
 20
5313.397058564291
 11
4576.709241548182
 21
5313.397058564291
  0
LINE
  8
_0-0_1
  6
CONTINUOUS
 62
    7
 10
4576.709241548182
 20
5268.397058564291
 11
4576.709241548182
 21
6308.397058564291
  0
LINE
  8
_0-0_1
  6
CONTINUOUS
 62
    7
 10
4466.709241548182
 20
6308.397058564291
 11
4576.709241548182
 21
6308.397058564291
  0
LINE
  8
_0-0_1
  6
CONTINUOUS
 62
    7
 10
4576.709241548182
 20
5268.397058564291
 11
4466.709241548182
 21
5268.397058564291
  0
LINE
  8
_0-3_4
  6
CENTER1
 62
    7
 10
3896.7092415481829
 20
5268.397058564301
 11
3896.7092415481829
 21
6308.397058564301
  0
LINE
  8
_0-3_4
  6
CENTER1
 62
    7
 10
3896.7092415481829
 20
6308.397058564301
 11
4246.7092415481829
 21
6308.397058564291
  0
LINE
  8
_0-3_4
  6
CENTER1
 62
    7
 10
4246.7092415481829
 20
5268.397058564291
 11
3896.7092415481829
 21
5268.397058564301
  0
LINE
  8
_0-0_1
  6
CONTINUOUS
 62
    7
 10
3926.7092415481829
 20
5288.397058564291
 11
3926.7092415481829
 21
6288.3970585643101
  0
LINE
  8
_0-0_1
  6
CONTINUOUS
 62
    7
 10
4176.7092415481829
 20
6188.397058564231
 11
4246.7092415481829
 21
6188.397058564291
  0
LINE
  8
_0-0_1
  6
CONTINUOUS
 62
    7
 10
4246.7092415481829
 20
5388.397058564291
 11
4176.7092415481829
 21
5388.397058564311
  0
LINE
  8
_0-0_1
  6
CONTINUOUS
 62
    7
 10
4176.7092415481829
 20
5388.397058564311
 11
4176.7092415481829
 21
6188.397058564231
  0
LINE
  8
_0-0_1
  6
CONTINUOUS
 62
    7
 10
3756.7092415481829
 20
5368.397058564301
 11
3756.7092415481829
 21
6208.397058564291
  0
LINE
  8
_0-0_1
  6
CONTINUOUS
 62
    7
 10
3806.7092415481829
 20
5368.397058564301
 11
3806.7092415481829
 21
6208.397058564291
  0
LINE
  8
_0-0_1
  6
CONTINUOUS
 62
    7
 10
3756.7092415481829
 20
6208.397058564291
 11
3926.7092415481829
 21
6208.397058564291
  0
LINE
  8
_0-0_1
  6
CONTINUOUS
 62
    7
 10
3926.7092415481829
 20
5368.397058564301
 11
3756.7092415481829
 21
5368.397058564301
  0
LINE
  8
_0-0_1
  6
CONTINUOUS
 62
    7
 10
3656.7092415481829
 20
5608.397058564291
 11
3656.7092415481829
 21
5968.397058564301
  0
LINE
  8
_0-0_1
  6
CONTINUOUS
 62
    7
 10
3656.7092415481829
 20
5968.397058564301
 11
3756.7092415481829
 21
6028.397058564301
  0
LINE
  8
_0-0_1
  6
CONTINUOUS
 62
    7
 10
3656.7092415481829
 20
5608.397058564291
 11
3756.7092415481829
 21
5548.3970585643101
  0
TEXT
  8
_0-8_9
 62
    7
 10
3933.5311393583925
 20
4968.6141755215713
 40
140
 41
1.05714285714286
 50
0
  1
(必要管芯高　1,600以上)
  0
INSERT
  2
-012-BK13
  8
_0-a_0
 10
1816.2012123511026
 20
-2652.3131967411691
 41
1
 42
1
 50
0
  0
INSERT
  2
-013-BK14
  8
_0-a_0
 10
1816.2012123511026
 20
-2652.3131967411691
 41
1
 42
1
 50
0
  0
LINE
  8
_0-0_1
  6
CONTINUOUS
 62
    7
 10
6840.7632561467235
 20
6370.0160003390911
 11
8880.7632561467217
 21
6370.0160003390911
  0
LINE
  8
_0-0_1
  6
CONTINUOUS
 62
    7
 10
6840.7632561467235
 20
6170.0160003390911
 11
8880.7632561467217
 21
6170.0160003390911
  0
LINE
  8
_0-0_1
  6
CONTINUOUS
 62
    7
 10
6840.7632561467235
 20
5970.0160003390911
 11
8880.7632561467217
 21
5970.0160003390911
  0
LINE
  8
_0-0_1
  6
CONTINUOUS
 62
    7
 10
6840.7632561467235
 20
5770.0160003390911
 11
8880.7632561467217
 21
5770.0160003390911
  0
LINE
  8
_0-0_1
  6
CONTINUOUS
 62
    7
 10
6840.7632561467235
 20
5570.0160003390911
 11
8880.7632561467217
 21
5570.0160003390911
  0
LINE
  8
_0-0_1
  6
CONTINUOUS
 62
    7
 10
6840.7632561467235
 20
5370.0160003390911
 11
8880.7632561467217
 21
5370.0160003390911
  0
LINE
  8
_0-0_1
  6
CONTINUOUS
 62
    7
 10
7680.7632561467217
 20
5170.0160003390911
 11
7680.7632561467217
 21
6570.0160003390911
  0
TEXT
  8
_0-8_9
 62
    7
 10
7091.7756649058429
 20
6603.9079711420118
 40
120
 41
1.06666666666667
 50
0
  1
仕　　様
  0
LINE
  8
_0-0_1
  6
CONTINUOUS
 62
    7
 10
7252.811804297462
 20
1944.2853434047811
 11
8152.8118042974911
 21
1944.2853434047811
  0
LINE
  8
_0-0_1
  6
CONTINUOUS
 62
    7
 10
3736.7092415481729
 20
1944.2853434047811
 11
5836.7092415481829
 21
1944.2853434047811
  0
TEXT
  8
_0-8_9
 62
    7
 10
8521.6566868036534
 20
2780.2227680651222
 40
100
 41
1
 50
0
  1
B (570kg)
  0
CIRCLE
  8
_0-0_1
  6
CONTINUOUS
 62
    7
 10
8084.2384386284721
 20
2444.4566937697414
 40
12
  0
LINE
  8
_0-0_1
  6
CONTINUOUS
 62
    7
 10
8084.2384386284721
 20
2444.4566937697414
 11
8278.0930720076522
 21
2780.2227680651222
  0
LINE
  8
_0-0_1
  6
CONTINUOUS
 62
    7
 10
8278.0930720076522
 20
2780.2227680651222
 11
8490.6773072416127
 21
2780.2227680651222
  0
TEXT
  8
_0-8_9
 62
    7
 10
8426.3355189204322
 20
2483.3103835907914
 40
100
 41
1
 50
0
  1
C (1300kg)
  0
CIRCLE
  8
_0-0_1
  6
CONTINUOUS
 62
    7
 10
8007.811804297412
 20
2135.986803258791
 40
12
  0
LINE
  8
_0-0_1
  6
CONTINUOUS
 62
    7
 10
8007.811804297412
 20
2135.986803258791
 11
8208.339166897993
 21
2483.3103835907914
  0
LINE
  8
_0-0_1
  6
CONTINUOUS
 62
    7
 10
8208.339166897993
 20
2483.3103835907914
 11
8396.9448254897725
 21
2483.3103835907914
  0
TEXT
  8
_0-8_9
 62
    7
 10
8500.4742050518325
 20
3657.2029817268617
 40
100
 41
1
 50
0
  1
A (2800kg)
  0
TEXT
  8
_0-8_9
 62
    7
 10
3370.0771247598527
 20
718.15418464565084
 40
120
 41
1.06666666666667
 50
0
  1
　　 2分割で行う事。
  0
TEXT
  8
_0-8_9
 62
    7
 10
3370.0771247598527
 20
550.15418464565073
 40
120
 41
1.06666666666667
 50
0
  1
     全部を4ton車1台では無理です。
  0
LINE
  8
_0-0_1
  6
CONTINUOUS
 62
    7
 10
4246.7092415481829
 20
3819.2853434047811
 11
4246.7092415481729
 21
2269.2853434047811
  0
LINE
  8
_0-0_1
  6
CONTINUOUS
 62
    7
 10
4466.709241548182
 20
3819.2853434047811
 11
4466.7092415481729
 21
2269.2853434047811
  0
LINE
  8
_0-0_1
  6
CONTINUOUS
 62
    7
 10
4396.709241548182
 20
2629.2853434047811
 11
4316.7092415481829
 21
2629.2853434047811
  0
LINE
  8
_0-0_1
  6
CONTINUOUS
 62
    7
 10
4316.7092415481829
 20
3819.2853434047811
 11
4316.7092415481729
 21
2579.2853434047811
  0
LINE
  8
_0-0_1
  6
CONTINUOUS
 62
    7
 10
4396.709241548182
 20
3819.2853434047811
 11
4396.7092415481729
 21
2579.2853434047811
  0
LINE
  8
_0-0_1
  6
CONTINUOUS
 62
    7
 10
6016.7092415481829
 20
4099.2853434047811
 11
4576.709241548182
 21
4099.2853434047811
  0
LINE
  8
_0-0_1
  6
CONTINUOUS
 62
    7
 10
4726.709241548182
 20
4099.2853434047811
 11
4726.7092415481729
 21
2044.2853434047811
  0
LINE
  8
_0-0_1
  6
CONTINUOUS
 62
    7
 10
4576.709241548182
 20
2299.2853434047811
 11
6016.7092415481829
 21
2299.2853434047811
  0
LINE
  8
_0-0_1
  6
CONTINUOUS
 62
    7
 10
4576.709241548182
 20
4099.2853434047811
 11
4576.709241548182
 21
2299.2853434047811
  0
LINE
  8
_0-0_1
  6
CONTINUOUS
 62
    7
 10
6016.7092415481829
 20
2299.2853434047811
 11
6016.7092415481829
 21
4099.2853434047811
  0
LINE
  8
_0-0_1
  6
CONTINUOUS
 62
    7
 10
4636.709241548182
 20
4099.2853434047811
 11
4636.709241548182
 21
2299.2853434047811
  0
LINE
  8
_0-0_1
  6
CONTINUOUS
 62
    7
 10
5766.7092415481829
 20
4099.2853434047811
 11
5766.7092415481829
 21
2299.2853434047811
  0
ARC
  8
_0-0_1
  6
CONTINUOUS
 62
    7
 10
6016.7092415481829
 20
4017.4671615866009
 40
81.818181818183007
 50
270
 51
89.999999999999588
  0
ARC
  8
_0-0_1
  6
CONTINUOUS
 62
    7
 10
6016.7092415481829
 20
2381.1035252229613
 40
81.818181818179596
 50
270
 51
90
  0
TEXT
  8
_0-8_9
 62
    7
 10
3318.7644495672525
 20
8120.4760063783315
 40
160
 41
1.125
 50
0
  1
３－２－７　ＫＹＴ－１００２００Ｘ
  0
TEXT
  8
_0-8_9
 62
    7
 10
8643.4240562238319
 20
8133.1840245326302
 40
140
 41
1.05714285714286
 50
0
  1
S=1/40
  0
TEXT
  8
_0-8_9
 62
    7
 10
7142.9935436140022
 20
6415.7174802374211
 40
100
 41
1
 50
0
  1
項　目
  0
TEXT
  8
_0-8_9
 62
    7
 10
8139.6405347176533
 20
6412.2569004072002
 40
100
 41
1
 50
0
  1
内　容
  0
TEXT
  8
_0-8_9
 62
    7
 10
6959.5828126122815
 20
6218.4644299148213
 40
100
 41
1
 50
0
  1
回転トルク
  0
TEXT
  8
_0-8_9
 62
    7
 10
7797.043131525772
 20
6221.9250097450504
 40
100
 41
1
 50
0
  1
MAX 20000kg-m
  0
TEXT
  8
_0-8_9
 62
    7
 10
3367.6932032778727
 20
882.88477134955144
 40
120
 41
1.06666666666667
 50
0
  1
(注) 4tonユニット車での吊り上げは  A と( B ＋ C )の
  0
TEXT
  8
_0-8_9
 62
    7
 10
6959.5828126122815
 20
6024.6719594224523
 40
100
 41
1
 50
0
  1
推進力
  0
TEXT
  8
_0-8_9
 62
    7
 10
6959.5828126122815
 20
5823.9583292696307
 40
100
 41
1
 50
0
  1
最大鋼管
  0
TEXT
  8
_0-8_9
 62
    7
 10
6959.5828126122815
 20
5626.7052789470326
 40
100
 41
1
 50
0
  1
最小立杭
  0
TEXT
  8
_0-8_9
 62
    7
 10
6959.5828126122815
 20
5425.991648794211
 40
100
 41
1
 50
0
  1
油圧動力
  0
TEXT
  8
_0-8_9
 62
    7
 10
6959.5828126122815
 20
5225.278018641392
 40
100
 41
1
 50
0
  1
重　量
  0
TEXT
  8
_0-8_9
 62
    7
 10
7797.043131525772
 20
6024.6719594224523
 40
100
 41
1
 50
0
  1
35 ton (50 ton)
  0
TEXT
  8
_0-8_9
 62
    7
 10
7797.043131525772
 20
5817.0371696091916
 40
100
 41
1
 50
0
  1
φ1800
  0
TEXT
  8
_0-8_9
 62
    7
 10
7797.043131525772
 20
5616.3235394563717
 40
100
 41
1
 50
0
  1
3000以上
  0
TEXT
  8
_0-8_9
 62
    7
 10
7797.043131525772
 20
5419.0704891337718
 40
100
 41
1
 50
0
  1
22kw ＋ 22kw
  0
TEXT
  8
_0-8_9
 62
    7
 10
7797.043131525772
 20
5228.7385984716111
 40
100
 41
1
 50
0
  1
4670 kg A ＋ B ＋ C 
  0
LINE
  8
_0-0_1
  6
CONTINUOUS
 62
    7
 10
7202.8118042974529
 20
1406.6388975748309
 11
7202.8118042974529
 21
1888.3932568611312
  0
LINE
  8
_0-0_1
  6
CONTINUOUS
 62
    7
 10
8202.811804297402
 20
1406.6388975748309
 11
8202.811804297402
 21
1888.3932568611312
  0
LINE
  8
_0-0_1
  6
CONTINUOUS
 62
    7
 10
7202.8118042974529
 20
1406.6388975748309
 11
8202.811804297402
 21
1406.6388975748309
  0
LINE
  8
_0-0_1
  6
CONTINUOUS
 62
    7
 10
7302.8118042974529
 20
1423.4388975748311
 11
7302.8118042974529
 21
1389.838897574831
  0
LINE
  8
_0-0_1
  6
CONTINUOUS
 62
    7
 10
7302.8118042974529
 20
1389.838897574831
 11
7202.8118042974529
 21
1406.6388975748309
  0
LINE
  8
_0-0_1
  6
CONTINUOUS
 62
    7
 10
7202.8118042974529
 20
1406.6388975748309
 11
7302.8118042974529
 21
1423.4388975748311
  0
LINE
  8
_0-0_1
  6
CONTINUOUS
 62
    7
 10
8102.8118042974029
 20
1389.838897574831
 11
8102.8118042974029
 21
1423.4388975748311
  0
LINE
  8
_0-0_1
  6
CONTINUOUS
 62
    7
 10
8102.8118042974029
 20
1423.4388975748311
 11
8202.811804297402
 21
1406.6388975748309
  0
LINE
  8
_0-0_1
  6
CONTINUOUS
 62
    7
 10
8202.811804297402
 20
1406.6388975748309
 11
8102.8118042974029
 21
1389.838897574831
  0
LINE
  8
_0-0_1
  6
CONTINUOUS
 62
    7
 10
7252.811804297412
 20
1594.1921214191109
 11
7252.811804297412
 21
1888.3932568611312
  0
LINE
  8
_0-0_1
  6
CONTINUOUS
 62
    7
 10
8152.811804297412
 20
1594.1921214191109
 11
8152.811804297412
 21
1888.3932568611312
  0
LINE
  8
_0-0_1
  6
CONTINUOUS
 62
    7
 10
7252.811804297412
 20
1594.1921214191109
 11
8152.811804297412
 21
1594.1921214191109
  0
LINE
  8
_0-0_1
  6
CONTINUOUS
 62
    7
 10
7352.811804297412
 20
1610.9921214191108
 11
7352.811804297412
 21
1577.3921214191109
  0
LINE
  8
_0-0_1
  6
CONTINUOUS
 62
    7
 10
7352.811804297412
 20
1577.3921214191109
 11
7252.811804297412
 21
1594.1921214191109
  0
LINE
  8
_0-0_1
  6
CONTINUOUS
 62
    7
 10
7252.811804297412
 20
1594.1921214191109
 11
7352.811804297412
 21
1610.9921214191108
  0
LINE
  8
_0-0_1
  6
CONTINUOUS
 62
    7
 10
8052.811804297412
 20
1577.3921214191109
 11
8052.811804297412
 21
1610.9921214191108
  0
LINE
  8
_0-0_1
  6
CONTINUOUS
 62
    7
 10
8052.811804297412
 20
1610.9921214191108
 11
8152.811804297412
 21
1594.1921214191109
  0
LINE
  8
_0-0_1
  6
CONTINUOUS
 62
    7
 10
8152.811804297412
 20
1594.1921214191109
 11
8052.811804297412
 21
1577.3921214191109
  0
LINE
  8
_0-0_1
  6
CONTINUOUS
 62
    7
 10
3579.7092415481629
 20
1406.6388975748309
 11
3579.7092415481629
 21
1888.3932568611312
  0
LINE
  8
_0-0_1
  6
CONTINUOUS
 62
    7
 10
5836.7092415481729
 20
1406.6388975748309
 11
5836.7092415481729
 21
1888.3932568611312
  0
LINE
  8
_0-0_1
  6
CONTINUOUS
 62
    7
 10
3579.7092415481629
 20
1406.6388975748309
 11
5836.7092415481729
 21
1406.6388975748309
  0
LINE
  8
_0-0_1
  6
CONTINUOUS
 62
    7
 10
3679.7092415481629
 20
1423.4388975748311
 11
3679.7092415481629
 21
1389.838897574831
  0
LINE
  8
_0-0_1
  6
CONTINUOUS
 62
    7
 10
3679.7092415481629
 20
1389.838897574831
 11
3579.7092415481629
 21
1406.6388975748309
  0
LINE
  8
_0-0_1
  6
CONTINUOUS
 62
    7
 10
3579.7092415481629
 20
1406.6388975748309
 11
3679.7092415481629
 21
1423.4388975748311
  0
LINE
  8
_0-0_1
  6
CONTINUOUS
 62
    7
 10
5736.7092415481729
 20
1389.838897574831
 11
5736.7092415481729
 21
1423.4388975748311
  0
LINE
  8
_0-0_1
  6
CONTINUOUS
 62
    7
 10
5736.7092415481729
 20
1423.4388975748311
 11
5836.7092415481729
 21
1406.6388975748309
  0
LINE
  8
_0-0_1
  6
CONTINUOUS
 62
    7
 10
5836.7092415481729
 20
1406.6388975748309
 11
5736.7092415481729
 21
1389.838897574831
  0
LINE
  8
_0-0_1
  6
CONTINUOUS
 62
    7
 10
3736.7092415481729
 20
1594.1921214191109
 11
3736.7092415481729
 21
1888.3932568611312
  0
LINE
  8
_0-0_1
  6
CONTINUOUS
 62
    7
 10
5836.7092415481729
 20
1594.1921214191109
 11
5836.7092415481729
 21
1888.3932568611312
  0
LINE
  8
_0-0_1
  6
CONTINUOUS
 62
    7
 10
3736.7092415481729
 20
1594.1921214191109
 11
5836.7092415481729
 21
1594.1921214191109
  0
LINE
  8
_0-0_1
  6
CONTINUOUS
 62
    7
 10
3836.7092415481729
 20
1610.9921214191108
 11
3836.7092415481729
 21
1577.3921214191109
  0
LINE
  8
_0-0_1
  6
CONTINUOUS
 62
    7
 10
3836.7092415481729
 20
1577.3921214191109
 11
3736.7092415481729
 21
1594.1921214191109
  0
LINE
  8
_0-0_1
  6
CONTINUOUS
 62
    7
 10
3736.7092415481729
 20
1594.1921214191109
 11
3836.7092415481729
 21
1610.9921214191108
  0
LINE
  8
_0-0_1
  6
CONTINUOUS
 62
    7
 10
5736.7092415481729
 20
1577.3921214191109
 11
5736.7092415481729
 21
1610.9921214191108
  0
LINE
  8
_0-0_1
  6
CONTINUOUS
 62
    7
 10
5736.7092415481729
 20
1610.9921214191108
 11
5836.7092415481729
 21
1594.1921214191109
  0
LINE
  8
_0-0_1
  6
CONTINUOUS
 62
    7
 10
5836.7092415481729
 20
1594.1921214191109
 11
5736.7092415481729
 21
1577.3921214191109
  0
LINE
  8
_0-0_1
  6
CONTINUOUS
 62
    7
 10
3579.7092415481629
 20
1594.1921214191109
 11
3579.7092415481629
 21
1888.3932568611312
  0
LINE
  8
_0-0_1
  6
CONTINUOUS
 62
    7
 10
3736.7092415481729
 20
1594.1921214191109
 11
3736.7092415481729
 21
1888.3932568611312
  0
LINE
  8
_0-0_1
  6
CONTINUOUS
 62
    7
 10
3579.7092415481629
 20
1594.1921214191109
 11
3736.7092415481729
 21
1594.1921214191109
  0
LINE
  8
_0-0_1
  6
CONTINUOUS
 62
    7
 10
3679.7092415481629
 20
1610.9921214191108
 11
3679.7092415481629
 21
1577.3921214191109
  0
LINE
  8
_0-0_1
  6
CONTINUOUS
 62
    7
 10
3679.7092415481629
 20
1577.3921214191109
 11
3579.7092415481629
 21
1594.1921214191109
  0
LINE
  8
_0-0_1
  6
CONTINUOUS
 62
    7
 10
3579.7092415481629
 20
1594.1921214191109
 11
3679.7092415481629
 21
1610.9921214191108
  0
LINE
  8
_0-0_1
  6
CONTINUOUS
 62
    7
 10
3636.7092415481729
 20
1577.3921214191109
 11
3636.7092415481729
 21
1610.9921214191108
  0
LINE
  8
_0-0_1
  6
CONTINUOUS
 62
    7
 10
3636.7092415481729
 20
1610.9921214191108
 11
3736.7092415481729
 21
1594.1921214191109
  0
LINE
  8
_0-0_1
  6
CONTINUOUS
 62
    7
 10
3736.7092415481729
 20
1594.1921214191109
 11
3636.7092415481729
 21
1577.3921214191109
  0
LINE
  8
_0-0_1
  6
CONTINUOUS
 62
    7
 10
3365.0291236109024
 20
1944.2853434047811
 11
3577.099108742013
 21
1944.2853434047811
  0
LINE
  8
_0-0_1
  6
CONTINUOUS
 62
    7
 10
3365.0291236109024
 20
2174.2853434047811
 11
3577.099108742013
 21
2174.2853434047811
  0
LINE
  8
_0-0_1
  6
CONTINUOUS
 62
    7
 10
3365.0291236109024
 20
1944.2853434047811
 11
3365.0291236109024
 21
2174.2853434047811
  0
LINE
  8
_0-0_1
  6
CONTINUOUS
 62
    7
 10
3381.829123610903
 20
2074.2853434047811
 11
3348.2291236109031
 21
2074.2853434047811
  0
LINE
  8
_0-0_1
  6
CONTINUOUS
 62
    7
 10
3348.2291236109031
 20
2074.2853434047811
 11
3365.0291236109024
 21
2174.2853434047811
  0
LINE
  8
_0-0_1
  6
CONTINUOUS
 62
    7
 10
3365.0291236109024
 20
2174.2853434047811
 11
3381.829123610903
 21
2074.2853434047811
  0
LINE
  8
_0-0_1
  6
CONTINUOUS
 62
    7
 10
3348.2291236109031
 20
2044.2853434047811
 11
3381.829123610903
 21
2044.2853434047811
  0
LINE
  8
_0-0_1
  6
CONTINUOUS
 62
    7
 10
3381.829123610903
 20
2044.2853434047811
 11
3365.0291236109024
 21
1944.2853434047811
  0
LINE
  8
_0-0_1
  6
CONTINUOUS
 62
    7
 10
3365.0291236109024
 20
1944.2853434047811
 11
3348.2291236109031
 21
2044.2853434047811
  0
LINE
  8
_0-0_1
  6
CONTINUOUS
 62
    7
 10
3365.0291236109024
 20
2199.2853434047811
 11
3577.099108742013
 21
2199.2853434047811
  0
LINE
  8
_0-0_1
  6
CONTINUOUS
 62
    7
 10
3365.0291236109024
 20
3199.2853434047811
 11
3577.099108742013
 21
3199.2853434047811
  0
LINE
  8
_0-0_1
  6
CONTINUOUS
 62
    7
 10
3365.0291236109024
 20
2199.2853434047811
 11
3365.0291236109024
 21
3199.2853434047811
  0
LINE
  8
_0-0_1
  6
CONTINUOUS
 62
    7
 10
3348.2291236109031
 20
2299.2853434047811
 11
3381.829123610903
 21
2299.2853434047811
  0
LINE
  8
_0-0_1
  6
CONTINUOUS
 62
    7
 10
3381.829123610903
 20
2299.2853434047811
 11
3365.0291236109024
 21
2199.2853434047811
  0
LINE
  8
_0-0_1
  6
CONTINUOUS
 62
    7
 10
3365.0291236109024
 20
2199.2853434047811
 11
3348.2291236109031
 21
2299.2853434047811
  0
LINE
  8
_0-0_1
  6
CONTINUOUS
 62
    7
 10
3381.829123610903
 20
3099.2853434047811
 11
3348.2291236109031
 21
3099.2853434047811
  0
LINE
  8
_0-0_1
  6
CONTINUOUS
 62
    7
 10
3348.2291236109031
 20
3099.2853434047811
 11
3365.0291236109024
 21
3199.2853434047811
  0
LINE
  8
_0-0_1
  6
CONTINUOUS
 62
    7
 10
3365.0291236109024
 20
3199.2853434047811
 11
3381.829123610903
 21
3099.2853434047811
  0
LINE
  8
_0-0_1
  6
CONTINUOUS
 62
    7
 10
3205.6701752464728
 20
1944.2853434047811
 11
3540.254625435713
 21
1944.2853434047811
  0
LINE
  8
_0-0_1
  6
CONTINUOUS
 62
    7
 10
3205.6701752464728
 20
3199.2853434047811
 11
3540.254625435713
 21
3199.2853434047811
  0
LINE
  8
_0-0_1
  6
CONTINUOUS
 62
    7
 10
3205.6701752464728
 20
1944.2853434047811
 11
3205.6701752464728
 21
3199.2853434047811
  0
LINE
  8
_0-0_1
  6
CONTINUOUS
 62
    7
 10
3188.8701752464726
 20
2044.2853434047811
 11
3222.4701752464625
 21
2044.2853434047811
  0
LINE
  8
_0-0_1
  6
CONTINUOUS
 62
    7
 10
3222.4701752464625
 20
2044.2853434047811
 11
3205.6701752464728
 21
1944.2853434047811
  0
LINE
  8
_0-0_1
  6
CONTINUOUS
 62
    7
 10
3205.6701752464728
 20
1944.2853434047811
 11
3188.8701752464726
 21
2044.2853434047811
  0
LINE
  8
_0-0_1
  6
CONTINUOUS
 62
    7
 10
3222.4701752464625
 20
3099.2853434047811
 11
3188.8701752464726
 21
3099.2853434047811
  0
LINE
  8
_0-0_1
  6
CONTINUOUS
 62
    7
 10
3188.8701752464726
 20
3099.2853434047811
 11
3205.6701752464728
 21
3199.2853434047811
  0
LINE
  8
_0-0_1
  6
CONTINUOUS
 62
    7
 10
3205.6701752464728
 20
3199.2853434047811
 11
3222.4701752464625
 21
3099.2853434047811
  0
LINE
  8
_0-0_1
  6
CONTINUOUS
 62
    7
 10
3205.6701752464728
 20
3199.2853434047811
 11
3577.099108742013
 21
3199.2853434047811
  0
LINE
  8
_0-0_1
  6
CONTINUOUS
 62
    7
 10
5368.8382526811238
 20
4099.2853434047811
 11
5368.8382526811129
 21
2299.2853434047811
  0
LINE
  8
_0-0_1
  6
CONTINUOUS
 62
    7
 10
5385.638252681123
 20
3999.2853434047811
 11
5352.0382526811227
 21
3999.2853434047811
  0
LINE
  8
_0-0_1
  6
CONTINUOUS
 62
    7
 10
5352.0382526811227
 20
3999.2853434047811
 11
5368.8382526811238
 21
4099.2853434047811
  0
LINE
  8
_0-0_1
  6
CONTINUOUS
 62
    7
 10
5368.8382526811238
 20
4099.2853434047811
 11
5385.638252681123
 21
3999.2853434047811
  0
LINE
  8
_0-0_1
  6
CONTINUOUS
 62
    7
 10
5352.0382526811136
 20
2399.2853434047811
 11
5385.6382526811121
 21
2399.2853434047811
  0
LINE
  8
_0-0_1
  6
CONTINUOUS
 62
    7
 10
5385.6382526811121
 20
2399.2853434047811
 11
5368.8382526811129
 21
2299.2853434047811
  0
LINE
  8
_0-0_1
  6
CONTINUOUS
 62
    7
 10
5368.8382526811129
 20
2299.2853434047811
 11
5352.0382526811136
 21
2399.2853434047811
  0
LINE
  8
_0-0_1
  6
CONTINUOUS
 62
    7
 10
216810.63549284614
 20
228708.91499029184
 11
216777.0354928461
 21
228708.91499029184
  0
LINE
  8
_0-0_1
  6
CONTINUOUS
 62
    7
 10
216777.0354928461
 20
228708.91499029184
 11
216793.83549284612
 21
228608.91499029184
  0
LINE
  8
_0-0_1
  6
CONTINUOUS
 62
    7
 10
216793.83549284612
 20
228608.91499029184
 11
216810.63549284614
 21
228708.91499029184
  0
LINE
  8
_0-0_1
  6
CONTINUOUS
 62
    7
 10
7082.9967572214919
 20
4089.385501386671
 11
7082.9967572214919
 21
3574.533514363151
  0
LINE
  8
_0-0_1
  6
CONTINUOUS
 62
    7
 10
8322.675826629853
 20
4089.385501386671
 11
8322.675826629853
 21
3574.533514363151
  0
LINE
  8
_0-0_1
  6
CONTINUOUS
 62
    7
 10
7082.9967572214919
 20
4089.385501386671
 11
8322.675826629853
 21
4089.385501386671
  0
LINE
  8
_0-0_1
  6
CONTINUOUS
 62
    7
 10
7182.9967572214919
 20
4106.1855013866707
 11
7182.9967572214919
 21
4072.5855013866712
  0
LINE
  8
_0-0_1
  6
CONTINUOUS
 62
    7
 10
7182.9967572214919
 20
4072.5855013866712
 11
7082.9967572214919
 21
4089.385501386671
  0
LINE
  8
_0-0_1
  6
CONTINUOUS
 62
    7
 10
7082.9967572214919
 20
4089.385501386671
 11
7182.9967572214919
 21
4106.1855013866707
  0
LINE
  8
_0-0_1
  6
CONTINUOUS
 62
    7
 10
8222.675826629853
 20
4072.5855013866712
 11
8222.675826629853
 21
4106.1855013866707
  0
LINE
  8
_0-0_1
  6
CONTINUOUS
 62
    7
 10
8222.675826629853
 20
4106.1855013866707
 11
8322.675826629853
 21
4089.385501386671
  0
LINE
  8
_0-0_1
  6
CONTINUOUS
 62
    7
 10
8322.675826629853
 20
4089.385501386671
 11
8222.675826629853
 21
4072.5855013866712
  0
TEXT
  8
_0-8_9
 62
    7
 10
7515.2293656238016
 20
4089.3855013866814
 40
120
 41
1.06666666666667
 50
0
  1
1,240
  0
TEXT
  8
_0-8_9
 62
    7
 10
7595.6983086524724
 20
1594.1921214191211
 40
120
 41
1.06666666666667
 50
0
  1
900
  0
TEXT
  8
_0-8_9
 62
    7
 10
7515.2048779955521
 20
1406.6388975748309
 40
120
 41
1.06666666666667
 50
0
  1
1,000
  0
TEXT
  8
_0-8_9
 62
    7
 10
4673.9661758547327
 20
1594.1921214191109
 40
120
 41
1.06666666666667
 50
0
  1
2,100
  0
TEXT
  8
_0-8_9
 62
    7
 10
4559.3311393583826
 20
1406.6388975748309
 40
120
 41
1.06666666666667
 50
0
  1
2,257
  0
TEXT
  8
_0-8_9
 62
    7
 10
3365.0291236108928
 20
1959.2853434048016
 40
120
 41
1.06666666666667
 50
90
  1
230
  0
TEXT
  8
_0-8_9
 62
    7
 10
3365.0291236109024
 20
2522.2561463244519
 40
120
 41
1.06666666666667
 50
90
  1
1,000
  0
TEXT
  8
_0-8_9
 62
    7
 10
3205.6701752464728
 20
2404.9422777113205
 40
120
 41
1.06666666666667
 50
90
  1
1,255
  0
TEXT
  8
_0-8_9
 62
    7
 10
5371.7716377676716
 20
2943.9743944996408
 40
120
 41
1.06666666666667
 50
90
  1
MAXφ1800
  0
TEXT
  8
_0-8_9
 62
    7
 10
3353.2055919131631
 20
1595.5184782047513
 40
120
 41
1.06666666666667
 50
0
  1
157
  0
LINE
  8
_0-0_1
  6
CONTINUOUS
 62
    7
 10
3024.5723976818126
 20
1944.2853434047811
 11
3577.099108742013
 21
1944.2853434047811
  0
LINE
  8
_0-0_1
  6
CONTINUOUS
 62
    7
 10
3024.5723976818126
 20
3819.2853434047811
 11
3577.099108742013
 21
3819.2853434047811
  0
LINE
  8
_0-0_1
  6
CONTINUOUS
 62
    7
 10
3024.5723976818126
 20
1944.2853434047811
 11
3024.5723976818126
 21
3819.2853434047811
  0
LINE
  8
_0-0_1
  6
CONTINUOUS
 62
    7
 10
3054.5723976818126
 20
1996.2468676318513
 11
2994.5723976818126
 21
1996.2468676318513
  0
LINE
  8
_0-0_1
  6
CONTINUOUS
 62
    7
 10
2994.5723976818126
 20
1996.2468676318513
 11
3024.5723976818126
 21
1944.2853434047811
  0
LINE
  8
_0-0_1
  6
CONTINUOUS
 62
    7
 10
3024.5723976818126
 20
1944.2853434047811
 11
3054.5723976818126
 21
1996.2468676318513
  0
LINE
  8
_0-0_1
  6
CONTINUOUS
 62
    7
 10
2994.5723976818126
 20
3767.3238191777218
 11
3054.5723976818126
 21
3767.3238191777218
  0
LINE
  8
_0-0_1
  6
CONTINUOUS
 62
    7
 10
3054.5723976818126
 20
3767.3238191777218
 11
3024.5723976818126
 21
3819.2853434047811
  0
LINE
  8
_0-0_1
  6
CONTINUOUS
 62
    7
 10
3024.5723976818126
 20
3819.2853434047811
 11
2994.5723976818126
 21
3767.3238191777218
  0
TEXT
  8
_0-8_9
 62
    7
 10
3030.4021550806669
 20
2792.58218304911
 40
120
 41
1.06666666666667
 50
90
  1
2,120
  0
ENDSEC
  0
EOF
