  0
SECTION
  2
HEADER
  9
$ACADVER
  1
AC1009
  9
$INSBASE
 10
0.0
 20
0.0
 30
0.0
  9
$EXTMIN
 10
596.52100656707796
 20
320.99167598992523
 30
-0.0015258207003583
  9
$EXTMAX
 10
3868.7988375183181
 20
2781.3386602598912
 30
0.0000000349246037
  9
$LIMMIN
 10
0.0
 20
0.0
  9
$LIMMAX
 10
4200.0
 20
2970.0
  9
$ORTHOMODE
 70
     0
  9
$REGENMODE
 70
     1
  9
$FILLMODE
 70
     1
  9
$QTEXTMODE
 70
     0
  9
$MIRRTEXT
 70
     0
  9
$DRAGMODE
 70
     2
  9
$LTSCALE
 40
1.0
  9
$OSMODE
 70
    47
  9
$ATTMODE
 70
     1
  9
$TEXTSIZE
 40
2.5
  9
$TRACEWID
 40
1.0
  9
$TEXTSTYLE
  7
STANDARD
  9
$CLAYER
  8
STR
  9
$CELTYPE
  6
BYLAYER
  9
$CECOLOR
 62
   256
  9
$DIMSCALE
 40
1.0
  9
$DIMASZ
 40
20.0
  9
$DIMEXO
 40
0.625
  9
$DIMDLI
 40
3.75
  9
$DIMRND
 40
0.0
  9
$DIMDLE
 40
0.0
  9
$DIMEXE
 40
1.25
  9
$DIMTP
 40
0.0
  9
$DIMTM
 40
0.0
  9
$DIMTXT
 40
30.0
  9
$DIMCEN
 40
2.5
  9
$DIMTSZ
 40
0.0
  9
$DIMTOL
 70
     0
  9
$DIMLIM
 70
     0
  9
$DIMTIH
 70
     0
  9
$DIMTOH
 70
     0
  9
$DIMSE1
 70
     0
  9
$DIMSE2
 70
     0
  9
$DIMTAD
 70
     1
  9
$DIMZIN
 70
     8
  9
$DIMBLK
  1
OPEN30
  9
$DIMASO
 70
     1
  9
$DIMSHO
 70
     1
  9
$DIMPOST
  1

  9
$DIMAPOST
  1

  9
$DIMALT
 70
     0
  9
$DIMALTD
 70
     3
  9
$DIMALTF
 40
0.03937007874016
  9
$DIMLFAC
 40
1.0
  9
$DIMTOFL
 70
     1
  9
$DIMTVP
 40
0.0
  9
$DIMTIX
 70
     0
  9
$DIMSOXD
 70
     0
  9
$DIMSAH
 70
     0
  9
$DIMBLK1
  1

  9
$DIMBLK2
  1

  9
$DIMSTYLE
  2
ISO-25-BRGK
  9
$DIMCLRD
 70
     0
  9
$DIMCLRE
 70
     0
  9
$DIMCLRT
 70
     0
  9
$DIMTFAC
 40
1.0
  9
$DIMGAP
 40
10.0
  9
$LUNITS
 70
     2
  9
$LUPREC
 70
     4
  9
$SKETCHINC
 40
1.0
  9
$FILLETRAD
 40
0.0
  9
$AUNITS
 70
     0
  9
$AUPREC
 70
     0
  9
$MENU
  1
.
  9
$ELEVATION
 40
0.0
  9
$PELEVATION
 40
0.0
  9
$THICKNESS
 40
0.0
  9
$LIMCHECK
 70
     0
  9
$BLIPMODE
 70
     0
  9
$CHAMFERA
 40
0.0
  9
$CHAMFERB
 40
0.0
  9
$SKPOLY
 70
     0
  9
$TDCREATE
 40
2453468.4623951041
  9
$TDUPDATE
 40
2453508.7110805442
  9
$TDINDWG
 40
0.2443075694
  9
$TDUSRTIMER
 40
0.2443064815
  9
$USRTIMER
 70
     1
  9
$ANGBASE
 50
0.0
  9
$ANGDIR
 70
     0
  9
$PDMODE
 70
     0
  9
$PDSIZE
 40
0.0
  9
$PLINEWID
 40
0.0
  9
$COORDS
 70
     0
  9
$SPLFRAME
 70
     0
  9
$SPLINETYPE
 70
     6
  9
$SPLINESEGS
 70
     8
  9
$ATTDIA
 70
     0
  9
$ATTREQ
 70
     1
  9
$HANDLING
 70
     1
  9
$HANDSEED
  5
C62
  9
$SURFTAB1
 70
     6
  9
$SURFTAB2
 70
     6
  9
$SURFTYPE
 70
     6
  9
$SURFU
 70
     6
  9
$SURFV
 70
     6
  9
$UCSNAME
  2

  9
$UCSORG
 10
0.0
 20
0.0
 30
0.0
  9
$UCSXDIR
 10
1.0
 20
0.0
 30
0.0
  9
$UCSYDIR
 10
0.0
 20
1.0
 30
0.0
  9
$PUCSNAME
  2

  9
$PUCSORG
 10
0.0
 20
0.0
 30
0.0
  9
$PUCSXDIR
 10
1.0
 20
0.0
 30
0.0
  9
$PUCSYDIR
 10
0.0
 20
1.0
 30
0.0
  9
$USERI1
 70
     0
  9
$USERI2
 70
     0
  9
$USERI3
 70
     0
  9
$USERI4
 70
     0
  9
$USERI5
 70
     0
  9
$USERR1
 40
0.0
  9
$USERR2
 40
0.0
  9
$USERR3
 40
0.0
  9
$USERR4
 40
0.0
  9
$USERR5
 40
0.0
  9
$WORLDVIEW
 70
     1
  9
$SHADEDGE
 70
     3
  9
$SHADEDIF
 70
    70
  9
$TILEMODE
 70
     1
  9
$MAXACTVP
 70
    64
  9
$PLIMCHECK
 70
     0
  9
$PEXTMIN
 10
0.0
 20
0.0
 30
0.0
  9
$PEXTMAX
 10
0.0
 20
0.0
 30
0.0
  9
$PLIMMIN
 10
0.0
 20
0.0
  9
$PLIMMAX
 10
12.0
 20
9.0
  9
$UNITMODE
 70
     0
  9
$VISRETAIN
 70
     1
  9
$PLINEGEN
 70
     0
  9
$PSLTSCALE
 70
     1
  0
ENDSEC
  0
SECTION
  2
TABLES
  0
TABLE
  2
VPORT
 70
     5
  0
VPORT
  2
*ACTIVE
 70
     0
 10
0.0
 20
0.0
 11
1.0
 21
1.0
 12
2100.0
 22
1485.0
 13
0.0
 23
0.0
 14
10.0
 24
10.0
 15
10.0
 25
10.0
 16
0.0
 26
0.0
 36
1.0
 17
0.0
 27
0.0
 37
0.0
 40
2989.1201716738201
 41
1.4285714285714279
 42
50.0
 43
0.0
 44
0.0
 50
0.0
 51
0.0
 71
     0
 72
  1000
 73
     1
 74
     3
 75
     0
 76
     0
 77
     0
 78
     0
  0
ENDTAB
  0
TABLE
  2
LTYPE
 70
     2
  0
LTYPE
  2
CONTINUOUS
 70
     0
  3
Solid line
 72
    65
 73
     0
 40
0.0
  0
LTYPE
  2
CENTER
 70
     0
  3
Center ____ _ ____ _ ____ _ ____ _ ____ _ ____
 72
    65
 73
     4
 40
50.799999999999997
 49
31.75
 49
-6.3499999999999979
 49
6.3499999999999979
 49
-6.3499999999999979
  0
ENDTAB
  0
TABLE
  2
LAYER
 70
     4
  0
LAYER
  2
0
 70
     0
 62
     7
  6
CONTINUOUS
  0
LAYER
  2
STR
 70
     0
 62
     7
  6
CONTINUOUS
  0
LAYER
  2
BMK
 70
     0
 62
     1
  6
CENTER
  0
LAYER
  2
DEFPOINTS
 70
     0
 62
     7
  6
CONTINUOUS
  0
ENDTAB
  0
TABLE
  2
STYLE
 70
     1
  0
STYLE
  2
STANDARD
 70
     0
 40
0.0
 41
1.0
 50
0.0
 71
     0
 42
2.5
  3
txt.shx
  4
bigfont.shx
  0
ENDTAB
  0
TABLE
  2
VIEW
 70
     0
  0
ENDTAB
  0
TABLE
  2
UCS
 70
     0
  0
ENDTAB
  0
TABLE
  2
APPID
 70
     1
  0
APPID
  2
ACAD
 70
     0
  0
ENDTAB
  0
TABLE
  2
DIMSTYLE
 70
     1
  0
DIMSTYLE
  2
ISO-25-BRGK
 70
     0
  3

  4

  5

  6

  7

 40
1.0
 41
20.0
 42
0.625
 43
3.75
 44
1.25
 45
0.0
 46
0.0
 47
0.0
 48
0.0
140
30.0
141
2.5
142
0.0
143
0.03937007874016
144
1.0
145
0.0
146
1.0
147
10.0
 71
     0
 72
     0
 73
     0
 74
     0
 75
     0
 76
     0
 77
     1
 78
     8
170
     0
171
     3
172
     1
173
     0
174
     0
175
     0
176
     0
177
     0
178
     0
  0
ENDTAB
  0
ENDSEC
  0
SECTION
  2
BLOCKS
  0
BLOCK
  8
0
  2
$MODEL_SPACE
 70
     0
 10
0.0
 20
0.0
 30
0.0
  3
$MODEL_SPACE
  1

  0
ENDBLK
  5
B24
  8
0
  0
BLOCK
 67
     1
  8
0
  2
$PAPER_SPACE
 70
     0
 10
0.0
 20
0.0
 30
0.0
  3
$PAPER_SPACE
  1

  0
ENDBLK
  5
B20
 67
     1
  8
0
  0
BLOCK
  8
0
  2
_OPEN30
 70
     0
 10
0.0
 20
0.0
 30
0.0
  3
_OPEN30
  1

  0
LINE
  5
FC
  8
0
  6
BYBLOCK
 62
     0
 10
-1.0
 20
0.26794919
 30
0.0
 11
0.0
 21
0.0
 31
0.0
  0
LINE
  5
FD
  8
0
  6
BYBLOCK
 62
     0
 10
0.0
 20
0.0
 30
0.0
 11
-1.0
 21
-0.26794919
 31
0.0
  0
LINE
  5
FE
  8
0
  6
BYBLOCK
 62
     0
 10
0.0
 20
0.0
 30
0.0
 11
-1.0
 21
0.0
 31
0.0
  0
ENDBLK
  5
FF
  8
0
  0
BLOCK
  8
0
  2
_NONE
 70
     0
 10
0.0
 20
0.0
 30
0.0
  3
_NONE
  1

  0
ENDBLK
  5
102
  8
0
  0
BLOCK
  8
0
  2
*D4
 70
     1
 10
0.0
 20
0.0
 30
0.0
  3
*D4
  1

  0
LINE
  5
88A
  8
STR
 62
     0
 10
652.12818560479479
 20
1739.776908715734
 30
0.0
 11
652.12818560479479
 21
1554.015262426062
 31
0.0
  0
LINE
  5
88B
  8
STR
 62
     0
 10
718.12818560479525
 20
1739.776908715734
 30
0.0
 11
718.12818560479525
 21
1554.015262426062
 31
0.0
  0
LINE
  5
88C
  8
STR
 62
     0
 10
672.12818560479502
 20
1555.265262426062
 30
0.0
 11
698.12818560479548
 21
1555.265262426062
 31
0.0
  0
INSERT
  5
88D
  8
STR
 62
     0
  2
_OPEN30
 10
652.12818560479479
 20
1555.265262426062
 30
0.0
 41
20.0
 42
20.0
 43
20.0
 50
180.0
  0
INSERT
  5
88E
  8
STR
 62
     0
  2
_OPEN30
 10
718.12818560479525
 20
1555.265262426062
 30
0.0
 41
20.0
 42
20.0
 43
20.0
  0
INSERT
  5
88F
  8
STR
  2
*U5
 10
0.0
 20
0.0
 30
0.0
  0
POINT
  5
890
  8
DEFPOINTS
 62
     0
 10
652.12818560479479
 20
1740.401908715734
 30
0.0
  0
POINT
  5
891
  8
DEFPOINTS
 62
     0
 10
718.12818560479525
 20
1740.401908715734
 30
0.0
  0
POINT
  5
892
  8
DEFPOINTS
 62
     0
 10
718.12818560479525
 20
1555.265262426062
 30
0.0
  0
ENDBLK
  5
6AC
  8
0
  0
BLOCK
  8
0
  2
*U5
 70
     1
 10
0.0
 20
0.0
 30
0.0
  3
*U5
  1

  0
TEXT
  5
ACB
  8
STR
 62
     0
 10
660.12818560479525
 20
1565.2652624260629
 30
0.0
 40
30.0
  1
66
  0
ENDBLK
  5
ACD
  8
0
  0
BLOCK
  8
0
  2
*D6
 70
     1
 10
0.0
 20
0.0
 30
0.0
  3
*D6
  1

  0
LINE
  5
ABD
  8
STR
 62
     0
 10
718.12818560479525
 20
1739.151908715734
 30
0.0
 11
718.12818560479525
 21
1554.015262426062
 31
0.0
  0
LINE
  5
ABE
  8
STR
 62
     0
 10
2018.1281856047981
 20
1739.776908715734
 30
0.0
 11
2018.1281856047981
 21
1554.015262426062
 31
0.0
  0
LINE
  5
ABF
  8
STR
 62
     0
 10
738.12818560479525
 20
1555.265262426062
 30
0.0
 11
1998.1281856047981
 21
1555.265262426062
 31
0.0
  0
INSERT
  5
AC0
  8
STR
 62
     0
  2
_OPEN30
 10
718.12818560479525
 20
1555.265262426062
 30
0.0
 41
20.0
 42
20.0
 43
20.0
 50
180.0
  0
INSERT
  5
AC1
  8
STR
 62
     0
  2
_OPEN30
 10
2018.1281856047981
 20
1555.265262426062
 30
0.0
 41
20.0
 42
20.0
 43
20.0
  0
TEXT
  5
B02
  8
STR
 62
     0
 10
1368.1300000000001
 20
1541.27
 30
0.0
 40
30.0
  1
1300
  0
POINT
  5
AC3
  8
DEFPOINTS
 62
     0
 10
718.12818560479525
 20
1739.776908715734
 30
0.0
  0
POINT
  5
AC4
  8
DEFPOINTS
 62
     0
 10
2018.1281856047981
 20
1740.401908715734
 30
0.0
  0
POINT
  5
AC5
  8
DEFPOINTS
 62
     0
 10
2018.1281856047981
 20
1555.265262426062
 30
0.0
  0
ENDBLK
  5
6D9
  8
0
  0
BLOCK
  8
0
  2
*D7
 70
     1
 10
0.0
 20
0.0
 30
0.0
  3
*D7
  1

  0
LINE
  5
9D1
  8
STR
 62
     0
 10
718.12818560479525
 20
1739.776908715734
 30
0.0
 11
718.12818560479525
 21
1618.1685020949169
 31
0.0
  0
LINE
  5
9D2
  8
STR
 62
     0
 10
1718.128185604794
 20
1739.776908715734
 30
0.0
 11
1718.128185604794
 21
1618.1685020949169
 31
0.0
  0
LINE
  5
9D3
  8
STR
 62
     0
 10
738.12818560479525
 20
1619.4185020949169
 30
0.0
 11
1698.128185604794
 21
1619.4185020949169
 31
0.0
  0
INSERT
  5
9D4
  8
STR
 62
     0
  2
_OPEN30
 10
718.12818560479525
 20
1619.4185020949169
 30
0.0
 41
20.0
 42
20.0
 43
20.0
 50
180.0
  0
INSERT
  5
9D5
  8
STR
 62
     0
  2
_OPEN30
 10
1718.128185604794
 20
1619.4185020949169
 30
0.0
 41
20.0
 42
20.0
 43
20.0
  0
INSERT
  5
9D6
  8
STR
  2
*U8
 10
0.0
 20
0.0
 30
0.0
  0
POINT
  5
9D7
  8
DEFPOINTS
 62
     0
 10
718.12818560479525
 20
1740.401908715734
 30
0.0
  0
POINT
  5
9D8
  8
DEFPOINTS
 62
     0
 10
1718.128185604794
 20
1740.401908715734
 30
0.0
  0
POINT
  5
9D9
  8
DEFPOINTS
 62
     0
 10
1718.128185604794
 20
1619.4185020949169
 30
0.0
  0
ENDBLK
  5
6F1
  8
0
  0
BLOCK
  8
0
  2
*U8
 70
     1
 10
0.0
 20
0.0
 30
0.0
  3
*U8
  1

  0
TEXT
  5
AEF
  8
STR
 62
     0
 10
1106.6281856047949
 20
1629.4185020949169
 30
0.0
 40
30.0
  1
1000 (800)
  0
ENDBLK
  5
AF1
  8
0
  0
BLOCK
  8
0
  2
*D9
 70
     1
 10
0.0
 20
0.0
 30
0.0
  3
*D9
  1

  0
LINE
  5
977
  8
STR
 62
     0
 10
768.12818560479491
 20
1229.026908715734
 30
0.0
 11
768.12818560479491
 21
1317.7981330149439
 31
0.0
  0
LINE
  5
978
  8
STR
 62
     0
 10
1048.128185604794
 20
1229.026908715734
 30
0.0
 11
1048.128185604794
 21
1317.7981330149439
 31
0.0
  0
LINE
  5
979
  8
STR
 62
     0
 10
788.12818560479491
 20
1316.5481330149439
 30
0.0
 11
1028.1281856047949
 21
1316.5481330149439
 31
0.0
  0
INSERT
  5
97A
  8
STR
 62
     0
  2
_OPEN30
 10
768.12818560479491
 20
1316.5481330149439
 30
0.0
 41
20.0
 42
20.0
 43
20.0
 50
180.0
  0
INSERT
  5
97B
  8
STR
 62
     0
  2
_OPEN30
 10
1048.128185604794
 20
1316.5481330149439
 30
0.0
 41
20.0
 42
20.0
 43
20.0
  0
INSERT
  5
97C
  8
STR
  2
*U10
 10
0.0
 20
0.0
 30
0.0
  0
POINT
  5
97D
  8
DEFPOINTS
 62
     0
 10
768.12818560479491
 20
1228.401908715734
 30
0.0
  0
POINT
  5
97E
  8
DEFPOINTS
 62
     0
 10
1048.128185604794
 20
1228.401908715734
 30
0.0
  0
POINT
  5
97F
  8
DEFPOINTS
 62
     0
 10
1048.128185604794
 20
1316.5481330149439
 30
0.0
  0
ENDBLK
  5
738
  8
0
  0
BLOCK
  8
0
  2
*U10
 70
     1
 10
0.0
 20
0.0
 30
0.0
  3
*U10
  1

  0
TEXT
  5
ADB
  8
STR
 62
     0
 10
870.62818560479491
 20
1326.5481330149439
 30
0.0
 40
30.0
  1
280
  0
ENDBLK
  5
ADD
  8
0
  0
BLOCK
  8
0
  2
*D11
 70
     1
 10
0.0
 20
0.0
 30
0.0
  3
*D11
  1

  0
LINE
  5
989
  8
STR
 62
     0
 10
1059.3781856047949
 20
1218.401908715734
 30
0.0
 11
1277.5526479415989
 21
1218.401908715734
 31
0.0
  0
LINE
  5
98A
  8
STR
 62
     0
 10
1275.6776479415989
 20
888.40190871573395
 30
0.0
 11
1275.052647941598
 21
888.40190871573395
 31
0.0
  0
LINE
  5
98B
  8
STR
 62
     0
 10
1276.3026479415989
 20
1198.401908715734
 30
0.0
 11
1276.3026479415989
 21
908.40190871573395
 31
0.0
  0
INSERT
  5
98C
  8
STR
 62
     0
  2
_OPEN30
 10
1276.3026479415989
 20
1218.401908715734
 30
0.0
 41
20.0
 42
20.0
 43
20.0
 50
90.0
  0
INSERT
  5
98D
  8
STR
 62
     0
  2
_OPEN30
 10
1276.3026479415989
 20
888.40190871573395
 30
0.0
 41
20.0
 42
20.0
 43
20.0
 50
270.0
  0
INSERT
  5
98E
  8
STR
  2
*U12
 10
0.0
 20
0.0
 30
0.0
  0
POINT
  5
98F
  8
DEFPOINTS
 62
     0
 10
1058.753185604794
 20
1218.401908715734
 30
0.0
  0
POINT
  5
990
  8
DEFPOINTS
 62
     0
 10
1276.3026479415989
 20
888.40190871573395
 30
0.0
  0
POINT
  5
991
  8
DEFPOINTS
 62
     0
 10
1276.3026479415989
 20
888.40190871573395
 30
0.0
  0
ENDBLK
  5
750
  8
0
  0
BLOCK
  8
0
  2
*U12
 70
     1
 10
0.0
 20
0.0
 30
0.0
  3
*U12
  1

  0
TEXT
  5
AE3
  8
STR
 62
     0
 10
1266.302647941598
 20
1015.901908715734
 30
0.0
 40
30.0
  1
330
 50
90.0
  0
ENDBLK
  5
AE5
  8
0
  0
BLOCK
  8
0
  2
*D13
 70
     1
 10
0.0
 20
0.0
 30
0.0
  3
*D13
  1

  0
LINE
  5
980
  8
STR
 62
     0
 10
1194.1567219679091
 20
888.40190871573395
 30
0.0
 11
1193.5317219679091
 21
888.40190871573395
 31
0.0
  0
LINE
  5
981
  8
STR
 62
     0
 10
1059.3781856047949
 20
688.40190871573407
 30
0.0
 11
1196.0317219679091
 21
688.40190871573407
 31
0.0
  0
LINE
  5
982
  8
STR
 62
     0
 10
1194.7817219679091
 20
868.40190871573395
 30
0.0
 11
1194.7817219679091
 21
708.40190871573395
 31
0.0
  0
INSERT
  5
983
  8
STR
 62
     0
  2
_OPEN30
 10
1194.7817219679091
 20
888.40190871573395
 30
0.0
 41
20.0
 42
20.0
 43
20.0
 50
90.0
  0
INSERT
  5
984
  8
STR
 62
     0
  2
_OPEN30
 10
1194.7817219679091
 20
688.40190871573407
 30
0.0
 41
20.0
 42
20.0
 43
20.0
 50
270.0
  0
INSERT
  5
985
  8
STR
  2
*U14
 10
0.0
 20
0.0
 30
0.0
  0
POINT
  5
986
  8
DEFPOINTS
 62
     0
 10
1194.7817219679091
 20
888.40190871573395
 30
0.0
  0
POINT
  5
987
  8
DEFPOINTS
 62
     0
 10
1058.753185604794
 20
688.40190871573407
 30
0.0
  0
POINT
  5
988
  8
DEFPOINTS
 62
     0
 10
1194.7817219679091
 20
688.40190871573407
 30
0.0
  0
ENDBLK
  5
771
  8
0
  0
BLOCK
  8
0
  2
*U14
 70
     1
 10
0.0
 20
0.0
 30
0.0
  3
*U14
  1

  0
TEXT
  5
ADF
  8
STR
 62
     0
 10
1184.7817219679091
 20
753.40190871573395
 30
0.0
 40
30.0
  1
200
 50
90.0
  0
ENDBLK
  5
AE1
  8
0
  0
BLOCK
  8
0
  2
*D15
 70
     1
 10
0.0
 20
0.0
 30
0.0
  3
*D15
  1

  0
LINE
  5
949
  8
STR
 62
     0
 10
2028.7531856047949
 20
544.40190871573395
 30
0.0
 11
2110.0543492402612
 21
544.40190871573395
 31
0.0
  0
LINE
  5
94A
  8
STR
 62
     0
 10
2028.7531856047949
 20
688.40190871573384
 30
0.0
 11
2110.0543492402612
 21
688.40190871573384
 31
0.0
  0
LINE
  5
94B
  8
STR
 62
     0
 10
2108.8043492402612
 20
564.40190871573407
 30
0.0
 11
2108.8043492402612
 21
668.40190871573373
 31
0.0
  0
INSERT
  5
94C
  8
STR
 62
     0
  2
_OPEN30
 10
2108.8043492402612
 20
544.40190871573395
 30
0.0
 41
20.0
 42
20.0
 43
20.0
 50
270.0
  0
INSERT
  5
94D
  8
STR
 62
     0
  2
_OPEN30
 10
2108.8043492402612
 20
688.40190871573384
 30
0.0
 41
20.0
 42
20.0
 43
20.0
 50
90.0
  0
INSERT
  5
94E
  8
STR
  2
*U16
 10
0.0
 20
0.0
 30
0.0
  0
POINT
  5
94F
  8
DEFPOINTS
 62
     0
 10
2028.1281856047949
 20
544.40190871573395
 30
0.0
  0
POINT
  5
950
  8
DEFPOINTS
 62
     0
 10
2028.1281856047949
 20
688.40190871573384
 30
0.0
  0
POINT
  5
951
  8
DEFPOINTS
 62
     0
 10
2108.8043492402612
 20
688.40190871573384
 30
0.0
  0
ENDBLK
  5
789
  8
0
  0
BLOCK
  8
0
  2
*U16
 70
     1
 10
0.0
 20
0.0
 30
0.0
  3
*U16
  1

  0
TEXT
  5
AD7
  8
STR
 62
     0
 10
2098.8043492402612
 20
581.40190871573395
 30
0.0
 40
30.0
  1
144
 50
90.0
  0
ENDBLK
  5
AD9
  8
0
  0
BLOCK
  8
0
  2
*D17
 70
     1
 10
0.0
 20
0.0
 30
0.0
  3
*D17
  1

  0
LINE
  5
91C
  8
STR
 62
     0
 10
2028.7531856047949
 20
544.40190871573395
 30
0.0
 11
2184.1642891396082
 21
544.40190871573395
 31
0.0
  0
LINE
  5
91D
  8
STR
 62
     0
 10
2182.2892891396082
 20
888.40190871573407
 30
0.0
 11
2181.6642891396082
 21
888.40190871573407
 31
0.0
  0
LINE
  5
91E
  8
STR
 62
     0
 10
2182.9142891396082
 20
564.40190871573407
 30
0.0
 11
2182.9142891396082
 21
868.40190871573395
 31
0.0
  0
INSERT
  5
91F
  8
STR
 62
     0
  2
_OPEN30
 10
2182.9142891396082
 20
544.40190871573395
 30
0.0
 41
20.0
 42
20.0
 43
20.0
 50
270.0
  0
INSERT
  5
920
  8
STR
 62
     0
  2
_OPEN30
 10
2182.9142891396082
 20
888.40190871573407
 30
0.0
 41
20.0
 42
20.0
 43
20.0
 50
90.0
  0
INSERT
  5
921
  8
STR
  2
*U18
 10
0.0
 20
0.0
 30
0.0
  0
POINT
  5
922
  8
DEFPOINTS
 62
     0
 10
2028.1281856047949
 20
544.40190871573395
 30
0.0
  0
POINT
  5
923
  8
DEFPOINTS
 62
     0
 10
2182.9142891396082
 20
888.40190871573407
 30
0.0
  0
POINT
  5
924
  8
DEFPOINTS
 62
     0
 10
2182.9142891396082
 20
888.40190871573407
 30
0.0
  0
ENDBLK
  5
7A1
  8
0
  0
BLOCK
  8
0
  2
*U18
 70
     1
 10
0.0
 20
0.0
 30
0.0
  3
*U18
  1

  0
TEXT
  5
ACF
  8
STR
 62
     0
 10
2172.9142891396082
 20
676.40190871573452
 30
0.0
 40
30.0
  1
344
 50
90.0
  0
ENDBLK
  5
AD1
  8
0
  0
BLOCK
  8
0
  2
*D19
 70
     1
 10
0.0
 20
0.0
 30
0.0
  3
*D19
  1

  0
LINE
  5
92E
  8
STR
 62
     0
 10
2028.7531856047949
 20
544.40190871573395
 30
0.0
 11
2255.5665518668429
 21
544.40190871573395
 31
0.0
  0
LINE
  5
92F
  8
STR
 62
     0
 10
1278.177647941598
 20
1218.401908715734
 30
0.0
 11
2255.5665518668429
 21
1218.401908715734
 31
0.0
  0
LINE
  5
930
  8
STR
 62
     0
 10
2254.3165518668429
 20
564.40190871573407
 30
0.0
 11
2254.3165518668429
 21
1198.401908715734
 31
0.0
  0
INSERT
  5
931
  8
STR
 62
     0
  2
_OPEN30
 10
2254.3165518668429
 20
544.40190871573395
 30
0.0
 41
20.0
 42
20.0
 43
20.0
 50
270.0
  0
INSERT
  5
932
  8
STR
 62
     0
  2
_OPEN30
 10
2254.3165518668429
 20
1218.401908715734
 30
0.0
 41
20.0
 42
20.0
 43
20.0
 50
90.0
  0
INSERT
  5
933
  8
STR
  2
*U20
 10
0.0
 20
0.0
 30
0.0
  0
POINT
  5
934
  8
DEFPOINTS
 62
     0
 10
2028.1281856047949
 20
544.40190871573395
 30
0.0
  0
POINT
  5
935
  8
DEFPOINTS
 62
     0
 10
1277.5526479415989
 20
1218.401908715734
 30
0.0
  0
POINT
  5
936
  8
DEFPOINTS
 62
     0
 10
2254.3165518668429
 20
1218.401908715734
 30
0.0
  0
ENDBLK
  5
7B9
  8
0
  0
BLOCK
  8
0
  2
*U20
 70
     1
 10
0.0
 20
0.0
 30
0.0
  3
*U20
  1

  0
TEXT
  5
AD3
  8
STR
 62
     0
 10
2244.3165518668429
 20
841.40190871573384
 30
0.0
 40
30.0
  1
674
 50
90.0
  0
ENDBLK
  5
AD5
  8
0
  0
BLOCK
  8
0
  2
*D21
 70
     1
 10
0.0
 20
0.0
 30
0.0
  3
*D21
  1

  0
LINE
  5
82E
  8
STR
 62
     0
 10
1356.503185604794
 20
544.40190871573441
 30
0.0
 11
1355.8781856047949
 21
544.40190871573441
 31
0.0
  0
LINE
  5
82F
  8
STR
 62
     0
 10
1356.503185604794
 20
672.40190871573407
 30
0.0
 11
1355.8781856047949
 21
672.40190871573407
 31
0.0
  0
LINE
  5
830
  8
STR
 62
     0
 10
1357.128185604794
 20
564.40190871573441
 30
0.0
 11
1357.128185604794
 21
652.40190871573395
 31
0.0
  0
INSERT
  5
831
  8
STR
 62
     0
  2
_OPEN30
 10
1357.128185604794
 20
544.40190871573441
 30
0.0
 41
20.0
 42
20.0
 43
20.0
 50
270.0
  0
INSERT
  5
832
  8
STR
 62
     0
  2
_OPEN30
 10
1357.128185604794
 20
672.40190871573407
 30
0.0
 41
20.0
 42
20.0
 43
20.0
 50
90.0
  0
INSERT
  5
833
  8
STR
  2
*U22
 10
0.0
 20
0.0
 30
0.0
  0
POINT
  5
834
  8
DEFPOINTS
 62
     0
 10
1357.128185604794
 20
544.40190871573441
 30
0.0
  0
POINT
  5
835
  8
DEFPOINTS
 62
     0
 10
1357.128185604794
 20
672.40190871573407
 30
0.0
  0
POINT
  5
836
  8
DEFPOINTS
 62
     0
 10
1357.128185604794
 20
672.40190871573407
 30
0.0
  0
ENDBLK
  5
7FE
  8
0
  0
BLOCK
  8
0
  2
*U22
 70
     1
 10
0.0
 20
0.0
 30
0.0
  3
*U22
  1

  0
TEXT
  5
AC7
  8
STR
 62
     0
 10
1347.128185604794
 20
573.40190871573452
 30
0.0
 40
30.0
  1
128
 50
90.0
  0
ENDBLK
  5
AC9
  8
0
  0
BLOCK
  8
0
  2
*D23
 70
     1
 10
0.0
 20
0.0
 30
0.0
  3
*D23
  1

  0
LINE
  5
9C1
  8
STR
 62
     0
 10
2790.5088344332748
 20
533.77690871573441
 30
0.0
 11
2790.5088344332748
 21
403.79355146076603
 31
0.0
  0
LINE
  5
9C2
  8
STR
 62
     0
 10
3190.5088344332762
 20
533.77690871573395
 30
0.0
 11
3190.5088344332762
 21
403.79355146076603
 31
0.0
  0
LINE
  5
9C3
  8
STR
 62
     0
 10
2810.5088344332748
 20
405.04355146076603
 30
0.0
 11
3170.5088344332762
 21
405.04355146076603
 31
0.0
  0
INSERT
  5
9C4
  8
STR
 62
     0
  2
_OPEN30
 10
2790.5088344332748
 20
405.04355146076603
 30
0.0
 41
20.0
 42
20.0
 43
20.0
 50
180.0
  0
INSERT
  5
9C5
  8
STR
 62
     0
  2
_OPEN30
 10
3190.5088344332762
 20
405.04355146076603
 30
0.0
 41
20.0
 42
20.0
 43
20.0
  0
INSERT
  5
9C6
  8
STR
  2
*U24
 10
0.0
 20
0.0
 30
0.0
  0
POINT
  5
9C7
  8
DEFPOINTS
 62
     0
 10
2790.5088344332748
 20
534.40190871573418
 30
0.0
  0
POINT
  5
9C8
  8
DEFPOINTS
 62
     0
 10
3190.5088344332762
 20
534.40190871573418
 30
0.0
  0
POINT
  5
9C9
  8
DEFPOINTS
 62
     0
 10
3190.5088344332762
 20
405.04355146076603
 30
0.0
  0
ENDBLK
  5
853
  8
0
  0
BLOCK
  8
0
  2
*U24
 70
     1
 10
0.0
 20
0.0
 30
0.0
  3
*U24
  1

  0
TEXT
  5
AEB
  8
STR
 62
     0
 10
2955.5088344332748
 20
415.04355146076608
 30
0.0
 40
30.0
  1
400
  0
ENDBLK
  5
AED
  8
0
  0
BLOCK
  8
0
  2
*D25
 70
     1
 10
0.0
 20
0.0
 30
0.0
  3
*D25
  1

  0
LINE
  5
9A6
  8
STR
 62
     0
 10
2825.5088344332748
 20
1229.026908715734
 30
0.0
 11
2825.5088344332748
 21
1371.7924863419869
 31
0.0
  0
LINE
  5
9A7
  8
STR
 62
     0
 10
3155.5088344332762
 20
1229.026908715734
 30
0.0
 11
3155.5088344332762
 21
1371.7924863419869
 31
0.0
  0
LINE
  5
9A8
  8
STR
 62
     0
 10
2845.5088344332748
 20
1370.542486341986
 30
0.0
 11
3135.5088344332748
 21
1370.542486341986
 31
0.0
  0
INSERT
  5
9A9
  8
STR
 62
     0
  2
_OPEN30
 10
2825.5088344332748
 20
1370.542486341986
 30
0.0
 41
20.0
 42
20.0
 43
20.0
 50
180.0
  0
INSERT
  5
9AA
  8
STR
 62
     0
  2
_OPEN30
 10
3155.5088344332762
 20
1370.542486341986
 30
0.0
 41
20.0
 42
20.0
 43
20.0
  0
INSERT
  5
9AB
  8
STR
  2
*U26
 10
0.0
 20
0.0
 30
0.0
  0
POINT
  5
9AC
  8
DEFPOINTS
 62
     0
 10
2825.5088344332748
 20
1228.401908715734
 30
0.0
  0
POINT
  5
9AD
  8
DEFPOINTS
 62
     0
 10
3155.5088344332762
 20
1228.401908715734
 30
0.0
  0
POINT
  5
9AE
  8
DEFPOINTS
 62
     0
 10
3155.5088344332762
 20
1370.542486341986
 30
0.0
  0
ENDBLK
  5
86B
  8
0
  0
BLOCK
  8
0
  2
*U26
 70
     1
 10
0.0
 20
0.0
 30
0.0
  3
*U26
  1

  0
TEXT
  5
AE7
  8
STR
 62
     0
 10
2953.0088344332748
 20
1380.5424863419869
 30
0.0
 40
30.0
  1
330
  0
ENDBLK
  5
AE9
  8
0
  0
BLOCK
  8
0
  2
*D27
 70
     1
 10
0.0
 20
0.0
 30
0.0
  3
*D27
  1

  0
LINE
  5
A17
  8
STR
 62
     0
 10
652.12818560479479
 20
567.77690871573395
 30
0.0
 11
652.12818560479479
 21
397.97830829584672
 31
0.0
  0
LINE
  5
A18
  8
STR
 62
     0
 10
1718.128185604792
 20
543.77690871573418
 30
0.0
 11
1718.128185604792
 21
397.97830829584672
 31
0.0
  0
LINE
  5
A19
  8
STR
 62
     0
 10
672.12818560479479
 20
399.22830829584649
 30
0.0
 11
1698.128185604792
 21
399.22830829584649
 31
0.0
  0
INSERT
  5
A1A
  8
STR
 62
     0
  2
_OPEN30
 10
652.12818560479479
 20
399.22830829584649
 30
0.0
 41
20.0
 42
20.0
 43
20.0
 50
180.0
  0
INSERT
  5
A1B
  8
STR
 62
     0
  2
_OPEN30
 10
1718.128185604792
 20
399.22830829584649
 30
0.0
 41
20.0
 42
20.0
 43
20.0
  0
INSERT
  5
A1C
  8
STR
  2
*U28
 10
0.0
 20
0.0
 30
0.0
  0
POINT
  5
A1D
  8
DEFPOINTS
 62
     0
 10
652.12818560479479
 20
568.40190871573407
 30
0.0
  0
POINT
  5
A1E
  8
DEFPOINTS
 62
     0
 10
1718.128185604792
 20
544.40190871573395
 30
0.0
  0
POINT
  5
A1F
  8
DEFPOINTS
 62
     0
 10
1718.128185604792
 20
399.22830829584649
 30
0.0
  0
ENDBLK
  5
9EA
  8
0
  0
BLOCK
  8
0
  2
*U28
 70
     1
 10
0.0
 20
0.0
 30
0.0
  3
*U28
  1

  0
TEXT
  5
AF7
  8
STR
 62
     0
 10
1063.6281856047931
 20
409.22830829584649
 30
0.0
 40
30.0
  1
1066 (866)
  0
ENDBLK
  5
AF9
  8
0
  0
BLOCK
  8
0
  2
*D29
 70
     1
 10
0.0
 20
0.0
 30
0.0
  3
*D29
  1

  0
LINE
  5
A0E
  8
STR
 62
     0
 10
652.12818560479479
 20
567.77690871573395
 30
0.0
 11
652.12818560479479
 21
325.31220573779137
 31
0.0
  0
LINE
  5
A0F
  8
STR
 62
     0
 10
2018.1281856047949
 20
543.77690871573418
 30
0.0
 11
2018.1281856047949
 21
325.31220573779137
 31
0.0
  0
LINE
  5
A10
  8
STR
 62
     0
 10
672.12818560479479
 20
326.56220573779137
 30
0.0
 11
1998.128185604794
 21
326.56220573779137
 31
0.0
  0
INSERT
  5
A11
  8
STR
 62
     0
  2
_OPEN30
 10
652.12818560479479
 20
326.56220573779137
 30
0.0
 41
20.0
 42
20.0
 43
20.0
 50
180.0
  0
INSERT
  5
A12
  8
STR
 62
     0
  2
_OPEN30
 10
2018.1281856047949
 20
326.56220573779137
 30
0.0
 41
20.0
 42
20.0
 43
20.0
  0
INSERT
  5
A13
  8
STR
  2
*U30
 10
0.0
 20
0.0
 30
0.0
  0
POINT
  5
A14
  8
DEFPOINTS
 62
     0
 10
652.12818560479479
 20
568.40190871573407
 30
0.0
  0
POINT
  5
A15
  8
DEFPOINTS
 62
     0
 10
2018.1281856047949
 20
544.40190871573395
 30
0.0
  0
POINT
  5
A16
  8
DEFPOINTS
 62
     0
 10
2018.1281856047949
 20
326.56220573779137
 30
0.0
  0
ENDBLK
  5
A02
  8
0
  0
BLOCK
  8
0
  2
*U30
 70
     1
 10
0.0
 20
0.0
 30
0.0
  3
*U30
  1

  0
TEXT
  5
AF3
  8
STR
 62
     0
 10
1285.1281856047949
 20
336.56220573779137
 30
0.0
 40
30.0
  1
1366
  0
ENDBLK
  5
AF5
  8
0
  0
BLOCK
  8
0
  2
*D31
 70
     1
 10
0.0
 20
0.0
 30
0.0
  3
*D31
  1

  0
LINE
  5
A2C
  8
STR
 62
     0
 10
1060.003185604794
 20
688.40190871573407
 30
0.0
 11
1197.2817219679091
 21
688.40190871573407
 31
0.0
  0
LINE
  5
A2D
  8
STR
 62
     0
 10
1060.003185604794
 20
672.40190871573407
 30
0.0
 11
1197.2817219679091
 21
672.40190871573407
 31
0.0
  0
LINE
  5
A2E
  8
STR
 62
     0
 10
1196.0317219679091
 20
708.40190871573395
 30
0.0
 11
1196.0317219679091
 21
728.40190871573395
 31
0.0
  0
LINE
  5
A2F
  8
STR
 62
     0
 10
1196.0317219679091
 20
652.40190871573395
 30
0.0
 11
1196.0317219679091
 21
572.40190871573407
 31
0.0
  0
LINE
  5
A30
  8
STR
 62
     0
 10
1196.0317219679091
 20
688.40190871573407
 30
0.0
 11
1196.0317219679091
 21
672.40190871573407
 31
0.0
  0
INSERT
  5
A31
  8
STR
 62
     0
  2
_OPEN30
 10
1196.0317219679091
 20
688.40190871573407
 30
0.0
 41
20.0
 42
20.0
 43
20.0
 50
270.0
  0
INSERT
  5
A32
  8
STR
 62
     0
  2
_OPEN30
 10
1196.0317219679091
 20
672.40190871573407
 30
0.0
 41
20.0
 42
20.0
 43
20.0
 50
90.0
  0
INSERT
  5
A33
  8
STR
  2
*U32
 10
0.0
 20
0.0
 30
0.0
  0
POINT
  5
A34
  8
DEFPOINTS
 62
     0
 10
1059.3781856047949
 20
688.40190871573407
 30
0.0
  0
POINT
  5
A35
  8
DEFPOINTS
 62
     0
 10
1059.3781856047949
 20
672.40190871573407
 30
0.0
  0
POINT
  5
A36
  8
DEFPOINTS
 62
     0
 10
1196.0317219679091
 20
672.40190871573407
 30
0.0
  0
ENDBLK
  5
A38
  8
0
  0
BLOCK
  8
0
  2
*U32
 70
     1
 10
0.0
 20
0.0
 30
0.0
  3
*U32
  1

  0
TEXT
  5
AFB
  8
STR
 62
     0
 10
1186.0317219679091
 20
582.40190871573441
 30
0.0
 40
30.0
  1
16
 50
90.0
  0
ENDBLK
  5
AFD
  8
0
  0
ENDSEC
  0
SECTION
  2
ENTITIES
  0
LINE
  5
9C
  8
BMK
 10
596.56775971567436
 20
888.40190871573407
 30
0.0
 11
2182.9142891396082
 21
888.40190871573407
 31
0.0
  0
LINE
  5
A9
  8
STR
 10
652.12818560479479
 20
648.40190871573441
 30
0.0
 11
652.12818560479479
 21
623.40190871573441
 31
0.0
  0
LINE
  5
CB
  8
STR
 10
768.12818560479491
 20
788.40190871573429
 30
0.0
 11
768.12818560479491
 21
817.40190871573395
 31
0.0
  0
LINE
  5
EE
  8
STR
 10
2790.5088344332748
 20
544.40190871573441
 30
0.0
 11
3190.5088344332762
 21
544.40190871573395
 31
0.0
  0
LINE
  5
F1
  8
BMK
 10
2990.5088344332739
 20
1315.853199573557
 30
0.0
 11
2990.5088344332762
 21
464.40190871573412
 31
0.0
  0
CIRCLE
  5
F4
  8
STR
 10
2990.5088344332762
 20
888.40190871573407
 30
0.0
 40
40.0
  0
LINE
  5
F7
  8
STR
 10
2790.5088344332748
 20
554.40190871573441
 30
0.0
 11
2790.5088344332748
 21
544.40190871573441
 31
0.0
  0
LINE
  5
132
  8
BMK
 10
2940.5088344332762
 20
601.40190871573247
 30
0.0
 11
3040.5088344332748
 21
601.40190871573259
 31
0.0
  0
CIRCLE
  5
15E
  8
STR
 10
2990.5088344332762
 20
888.40190871573407
 30
0.0
 40
150.0
  0
LINE
  5
160
  8
STR
 10
2900.5088344332762
 20
652.40190871573395
 30
0.0
 11
3080.5088344332748
 21
652.40190871573395
 31
0.0
  0
CIRCLE
  5
162
  8
STR
 10
2990.5088344332762
 20
601.40190871573259
 30
0.0
 40
20.0
  0
LINE
  5
163
  8
STR
 10
2970.5088344332748
 20
561.40190871573293
 30
0.0
 11
2970.5088344332748
 21
652.40190871573441
 31
0.0
  0
LINE
  5
166
  8
STR
 10
2950.5088344332748
 20
561.40190871573293
 30
0.0
 11
2950.5088344332748
 21
652.40190871573441
 31
0.0
  0
LINE
  5
168
  8
STR
 10
2900.5088344332762
 20
652.40190871573395
 30
0.0
 11
2900.5088344332762
 21
672.40190871573259
 31
0.0
  0
LINE
  5
16A
  8
STR
 10
2880.5088344332748
 20
618.40190871573407
 30
0.0
 11
2880.5088344332762
 21
672.40190871573327
 31
0.0
  0
LINE
  5
16B
  8
STR
 10
2880.508834433273
 20
618.40190871573247
 30
0.0
 11
2935.5088344332739
 21
618.40190871573247
 31
0.0
  0
LINE
  5
16C
  8
STR
 10
2935.5088344332739
 20
618.40190871573407
 30
0.0
 11
2935.5088344332739
 21
652.40190871573395
 31
0.0
  0
LINE
  5
16D
  8
STR
 10
2870.5088344332762
 20
652.40190871573395
 30
0.0
 11
2870.5088344332762
 21
672.40190871573327
 31
0.0
  0
LINE
  5
16F
  8
STR
 10
2815.5088344332762
 20
652.40190871573395
 30
0.0
 11
2815.5088344332771
 21
672.40190871573486
 31
0.0
  0
LINE
  5
170
  8
STR
 10
2835.5088344332748
 20
618.40190871573407
 30
0.0
 11
2790.5088344332748
 21
618.40190871573407
 31
0.0
  0
LINE
  5
171
  8
STR
 10
2835.5088344332748
 20
652.40190871573395
 30
0.0
 11
2835.5088344332748
 21
618.40190871573407
 31
0.0
  0
LINE
  5
172
  8
STR
 10
2870.5088344332748
 20
652.40190871573395
 30
0.0
 11
2815.5088344332762
 21
652.40190871573395
 31
0.0
  0
LINE
  5
173
  8
STR
 10
2970.5088344332748
 20
561.40190871573293
 30
0.0
 11
2950.5088344332748
 21
561.40190871573293
 31
0.0
  0
LINE
  5
175
  8
STR
 10
2850.5088344332739
 20
554.40190871573441
 30
0.0
 11
2850.5088344332739
 21
652.40190871573395
 31
0.0
  0
LINE
  5
176
  8
STR
 10
2865.5088344332762
 20
554.40190871573441
 30
0.0
 11
2865.5088344332762
 21
652.40190871573395
 31
0.0
  0
LINE
  5
177
  8
STR
 10
3115.5088344332762
 20
554.40190871573441
 30
0.0
 11
3115.5088344332762
 21
652.40190871573441
 31
0.0
  0
LINE
  5
178
  8
STR
 10
3130.5088344332762
 20
554.40190871573441
 30
0.0
 11
3130.5088344332762
 21
652.40190871573441
 31
0.0
  0
LINE
  5
179
  8
STR
 10
3010.5088344332748
 20
561.40190871573236
 30
0.0
 11
3030.5088344332762
 21
561.40190871573225
 31
0.0
  0
LINE
  5
17A
  8
STR
 10
3110.5088344332762
 20
652.40190871573395
 30
0.0
 11
3165.5088344332748
 21
652.40190871573327
 31
0.0
  0
LINE
  5
17B
  8
STR
 10
3145.5088344332739
 20
652.40190871573395
 30
0.0
 11
3145.5088344332762
 21
618.40190871573407
 31
0.0
  0
LINE
  5
17C
  8
STR
 10
3145.5088344332762
 20
618.40190871573327
 30
0.0
 11
3190.5088344332762
 21
618.40190871573327
 31
0.0
  0
LINE
  5
17D
  8
STR
 10
3165.5088344332748
 20
652.40190871573395
 30
0.0
 11
3165.5088344332739
 21
672.40190871573407
 31
0.0
  0
LINE
  5
17E
  8
STR
 10
3110.5088344332762
 20
652.40190871573395
 30
0.0
 11
3110.5088344332762
 21
672.40190871573327
 31
0.0
  0
LINE
  5
17F
  8
STR
 10
3045.5088344332762
 20
618.40190871573407
 30
0.0
 11
3045.5088344332762
 21
652.40190871573395
 31
0.0
  0
LINE
  5
180
  8
STR
 10
3100.508834433278
 20
618.40190871573213
 30
0.0
 11
3045.5088344332771
 21
618.40190871573213
 31
0.0
  0
LINE
  5
181
  8
STR
 10
3100.5088344332762
 20
618.40190871573407
 30
0.0
 11
3100.5088344332739
 21
672.40190871573259
 31
0.0
  0
LINE
  5
182
  8
STR
 10
3080.5088344332739
 20
652.40190871573395
 30
0.0
 11
3080.5088344332739
 21
672.40190871573225
 31
0.0
  0
LINE
  5
183
  8
STR
 10
3030.5088344332762
 20
561.40190871573225
 30
0.0
 11
3030.5088344332762
 21
652.40190871573395
 31
0.0
  0
LINE
  5
184
  8
STR
 10
3010.5088344332748
 20
561.40190871573236
 30
0.0
 11
3010.5088344332748
 21
652.40190871573395
 31
0.0
  0
LINE
  5
186
  8
STR
 10
3110.5088344332762
 20
652.40190871573395
 30
0.0
 11
3165.5088344332748
 21
652.40190871573395
 31
0.0
  0
LINE
  5
189
  8
STR
 10
2825.5088344332748
 20
1068.401908715734
 30
0.0
 11
3155.5088344332762
 21
1068.401908715733
 31
0.0
  0
LINE
  5
18E
  8
STR
 10
2920.5088344332762
 20
1068.401908715734
 30
0.0
 11
2920.5088344332762
 21
1118.401908715734
 31
0.0
  0
LINE
  5
192
  8
STR
 10
2940.5088344332762
 20
1148.401908715734
 30
0.0
 11
2940.5088344332739
 21
1198.401908715734
 31
0.0
  0
LINE
  5
195
  8
STR
 10
2890.5088344332748
 20
1148.401908715734
 30
0.0
 11
2890.5088344332748
 21
1118.401908715734
 31
0.0
  0
LINE
  5
196
  8
STR
 10
3090.5088344332771
 20
1148.401908715734
 30
0.0
 11
3090.5088344332771
 21
1118.401908715734
 31
0.0
  0
LINE
  5
197
  8
STR
 10
3060.5088344332771
 20
1068.401908715734
 30
0.0
 11
3060.5088344332771
 21
1118.401908715734
 31
0.0
  0
CIRCLE
  5
199
  8
STR
 10
2940.5088344332739
 20
1208.401908715734
 30
0.0
 40
10.0
  0
CIRCLE
  5
19B
  8
STR
 10
3040.5088344332748
 20
1208.401908715734
 30
0.0
 40
10.0
  0
LINE
  5
19C
  8
STR
 10
3040.5088344332748
 20
1148.401908715734
 30
0.0
 11
3040.5088344332748
 21
1198.401908715734
 31
0.0
  0
LINE
  5
1A6
  8
BMK
 10
596.56775971567436
 20
1950.401908715734
 30
0.0
 11
2118.1281856047981
 21
1950.401908715734
 31
0.0
  0
LINE
  5
1AC
  8
STR
 10
718.12818560479525
 20
1750.401908715734
 30
0.0
 11
718.12818560479525
 21
2150.401908715734
 31
0.0
  0
LINE
  5
1B0
  8
STR
 10
652.12818560479479
 20
1901.5354646461001
 30
0.0
 11
652.12818560479479
 21
1999.268352785369
 31
0.0
  0
LINE
  5
1F8
  8
BMK
 10
733.12818560479491
 20
764.86272191920159
 30
0.0
 11
733.12818560479491
 21
601.94109551226666
 31
0.0
  0
LINE
  5
1FF
  8
STR
 10
698.12818560479525
 20
1770.401908715734
 30
0.0
 11
698.12818560479525
 21
2130.401908715734
 31
0.0
  0
LINE
  5
224
  8
BMK
 10
753.12818560479502
 20
2010.401908715734
 30
0.0
 11
713.12818560479502
 21
2010.401908715734
 31
0.0
  0
CIRCLE
  5
226
  8
STR
 10
675.12818560479525
 20
1950.401908715734
 30
0.0
 40
10.0
  0
LINE
  5
227
  8
BMK
 10
675.12818560479525
 20
1970.401908715734
 30
0.0
 11
675.12818560479525
 21
1930.401908715734
 31
0.0
  0
LINE
  5
235
  8
BMK
 10
733.12818560479502
 20
1990.401908715734
 30
0.0
 11
733.12818560479502
 21
2030.4019087157351
 31
0.0
  0
LINE
  5
24B
  8
BMK
 10
2740.5088344332748
 20
888.40190871573407
 30
0.0
 11
3240.5088344332748
 21
888.40190871573407
 31
0.0
  0
LINE
  5
257
  8
STR
 10
698.12818560479525
 20
2130.401908715734
 30
0.0
 11
718.12818560479525
 21
2130.401908715734
 31
0.0
  0
LINE
  5
258
  8
STR
 10
698.12818560479525
 20
1770.401908715734
 30
0.0
 11
718.12818560479525
 21
1770.401908715734
 31
0.0
  0
TEXT
  5
4DA
  8
STR
 10
631.57480055713995
 20
2721.3142001094411
 30
0.0
 40
60.0
  1
ベビーモール機外形寸法図
  0
TEXT
  5
4DB
  8
STR
 10
631.57480055713995
 20
2527.1453537974221
 30
0.0
 40
60.0
  1
3-2-1　　KYT-105WH
  0
TEXT
  5
4DC
  8
STR
 10
1828.505289445025
 20
2653.0927150121329
 30
0.0
 40
60.0
  1
（寸法の比率は正確です。倍率を合わせて使用してください。）
  0
LINE
  5
55A
  8
STR
 10
718.12818560479491
 20
688.40190871573407
 30
0.0
 11
1013.128185604795
 21
688.40190871573407
 31
0.0
  0
LINE
  5
55B
  8
STR
 10
696.12818560479491
 20
672.40190871573441
 30
0.0
 11
2018.1281856047949
 21
672.40190871573407
 31
0.0
  0
LINE
  5
568
  8
STR
 10
1018.128185604795
 20
1068.401908715734
 30
0.0
 11
1018.128185604795
 21
768.40190871573395
 31
0.0
  0
LINE
  5
569
  8
STR
 10
818.12818560479536
 20
938.40190871573407
 30
0.0
 11
818.12818560479491
 21
838.40190871573441
 31
0.0
  0
LINE
  5
56B
  8
STR
 10
2018.1281856047949
 20
672.40190871573407
 30
0.0
 11
2018.1281856047949
 21
544.40190871573395
 31
0.0
  0
LINE
  5
570
  8
STR
 10
718.12818560479491
 20
688.40190871573407
 30
0.0
 11
718.12818560479491
 21
544.40190871573395
 31
0.0
  0
LINE
  5
571
  8
STR
 10
696.12818560479491
 20
672.40190871573441
 30
0.0
 11
696.12818560479491
 21
544.40190871573395
 31
0.0
  0
LINE
  5
572
  8
STR
 10
1013.128185604795
 20
688.40190871573395
 30
0.0
 11
1013.128185604795
 21
618.40190871573407
 31
0.0
  0
LINE
  5
575
  8
STR
 10
718.12818560479491
 20
738.40190871573407
 30
0.0
 11
748.12818560479491
 21
738.40190871573407
 31
0.0
  0
LINE
  5
576
  8
STR
 10
718.12818560479491
 20
738.40190871573407
 30
0.0
 11
718.12818560479491
 21
688.40190871573407
 31
0.0
  0
LINE
  5
577
  8
STR
 10
748.12818560479491
 20
738.40190871573407
 30
0.0
 11
748.12818560479491
 21
688.40190871573407
 31
0.0
  0
LINE
  5
578
  8
STR
 10
778.12818560479479
 20
728.40190871573395
 30
0.0
 11
993.12818560479525
 21
728.40190871573395
 31
0.0
  0
LINE
  5
57B
  8
STR
 10
768.12818560479491
 20
788.40190871573429
 30
0.0
 11
768.12818560479491
 21
838.40190871573441
 31
0.0
  0
LINE
  5
57F
  8
STR
 10
778.12818560479479
 20
728.40190871573395
 30
0.0
 11
778.12818560479479
 21
688.40190871573407
 31
0.0
  0
LINE
  5
583
  8
STR
 10
718.12818560479491
 20
618.40190871573407
 30
0.0
 11
1013.128185604795
 21
618.40190871573407
 31
0.0
  0
LINE
  5
584
  8
STR
 10
1013.128185604795
 20
652.40190871573441
 30
0.0
 11
2018.1281856047949
 21
652.40190871573395
 31
0.0
  0
LINE
  5
586
  8
STR
 10
993.12818560479502
 20
728.40190871573395
 30
0.0
 11
993.12818560479502
 21
688.40190871573407
 31
0.0
  0
LINE
  5
587
  8
STR
 10
768.12818560479491
 20
838.40190871573441
 30
0.0
 11
948.12818560479423
 21
838.40190871573441
 31
0.0
  0
LINE
  5
588
  8
STR
 10
768.12818560479491
 20
788.40190871573429
 30
0.0
 11
1048.128185604794
 21
788.40190871573395
 31
0.0
  0
LINE
  5
589
  8
STR
 10
818.12818560479491
 20
788.40190871573429
 30
0.0
 11
818.12818560479491
 21
728.40190871573395
 31
0.0
  0
LINE
  5
58D
  8
STR
 10
948.12818560479491
 20
1068.401908715734
 30
0.0
 11
948.12818560479423
 21
728.40190871573395
 31
0.0
  0
LINE
  5
58F
  8
STR
 10
768.12818560479491
 20
988.40190871573407
 30
0.0
 11
1048.128185604794
 21
988.40190871573407
 31
0.0
  0
LINE
  5
590
  8
STR
 10
768.12818560479491
 20
938.40190871573407
 30
0.0
 11
948.12818560479423
 21
938.40190871573407
 31
0.0
  0
LINE
  5
591
  8
STR
 10
768.12818560479491
 20
988.40190871573407
 30
0.0
 11
768.12818560479491
 21
938.40190871573407
 31
0.0
  0
LINE
  5
592
  8
STR
 10
768.12818560479491
 20
988.40190871573407
 30
0.0
 11
768.12818560479491
 21
959.40190871573395
 31
0.0
  0
LINE
  5
593
  8
STR
 10
963.12818560479502
 20
1038.401908715734
 30
0.0
 11
963.12818560479434
 21
728.40190871573395
 31
0.0
  0
LINE
  5
594
  8
STR
 10
868.12818560479536
 20
938.40190871573407
 30
0.0
 11
868.12818560479491
 21
838.40190871573441
 31
0.0
  0
LINE
  5
595
  8
STR
 10
1048.128185604794
 20
988.40190871573407
 30
0.0
 11
1048.128185604794
 21
788.40190871573395
 31
0.0
  0
LINE
  5
596
  8
STR
 10
993.12818560479525
 20
1038.401908715734
 30
0.0
 11
993.12818560479502
 21
728.40190871573395
 31
0.0
  0
LINE
  5
597
  8
STR
 10
993.12818560479502
 20
768.40190871573395
 30
0.0
 11
1018.128185604795
 21
768.40190871573395
 31
0.0
  0
LINE
  5
598
  8
STR
 10
948.12818560479491
 20
1068.401908715734
 30
0.0
 11
1018.128185604795
 21
1068.401908715734
 31
0.0
  0
LINE
  5
599
  8
STR
 10
948.12818560479491
 20
1038.401908715734
 30
0.0
 11
1018.128185604795
 21
1038.401908715734
 31
0.0
  0
LINE
  5
59A
  8
STR
 10
948.12818560479491
 20
1118.401908715734
 30
0.0
 11
1018.128185604795
 21
1118.401908715734
 31
0.0
  0
LINE
  5
59B
  8
STR
 10
948.12818560479491
 20
1148.401908715734
 30
0.0
 11
1018.128185604795
 21
1148.401908715734
 31
0.0
  0
LINE
  5
59C
  8
STR
 10
948.12818560479491
 20
1148.401908715734
 30
0.0
 11
948.12818560479491
 21
1118.401908715734
 31
0.0
  0
LINE
  5
59D
  8
STR
 10
1018.128185604795
 20
1148.401908715734
 30
0.0
 11
1018.128185604795
 21
1118.401908715734
 31
0.0
  0
LINE
  5
59F
  8
STR
 10
968.12818560479491
 20
1118.401908715734
 30
0.0
 11
968.12818560479434
 21
1068.401908715734
 31
0.0
  0
LINE
  5
5A0
  8
STR
 10
998.12818560479491
 20
1118.401908715734
 30
0.0
 11
998.12818560479491
 21
1068.401908715734
 31
0.0
  0
LINE
  5
5A1
  8
STR
 10
983.12818560479491
 20
1148.401908715734
 30
0.0
 11
983.12818560479491
 21
1198.401908715734
 31
0.0
  0
CIRCLE
  5
5A2
  8
STR
 10
983.12818560479491
 20
1208.401908715734
 30
0.0
 40
10.0
  0
LINE
  5
5A3
  8
STR
 10
1718.1281856047981
 20
672.40190871573441
 30
0.0
 11
1718.128185604794
 21
544.40190871573395
 31
0.0
  0
LINE
  5
5A9
  8
STR
 10
696.12818560479491
 20
623.40190871573441
 30
0.0
 11
652.12818560479479
 21
623.40190871573441
 31
0.0
  0
LINE
  5
5AA
  8
STR
 10
696.12818560479491
 20
593.40190871573441
 30
0.0
 11
652.12818560479479
 21
593.40190871573407
 31
0.0
  0
LINE
  5
5AB
  8
STR
 10
696.12818560479491
 20
648.40190871573441
 30
0.0
 11
652.12818560479479
 21
648.40190871573441
 31
0.0
  0
LINE
  5
5AC
  8
STR
 10
696.12818560479491
 20
568.40190871573441
 30
0.0
 11
652.12818560479479
 21
568.40190871573407
 31
0.0
  0
LINE
  5
5AD
  8
STR
 10
652.12818560479479
 20
593.40190871573407
 30
0.0
 11
652.12818560479479
 21
568.40190871573407
 31
0.0
  0
LINE
  5
5AE
  8
STR
 10
652.12818560479479
 20
1816.401908715734
 30
0.0
 11
652.12818560479479
 21
2084.4019087157349
 31
0.0
  0
LINE
  5
5B1
  8
STR
 10
718.12818560479525
 20
2150.401908715734
 30
0.0
 11
1013.128185604795
 21
2150.4019087157349
 31
0.0
  0
LINE
  5
5B2
  8
STR
 10
718.12818560479525
 20
1750.401908715734
 30
0.0
 11
1013.128185604795
 21
1750.401908715734
 31
0.0
  0
LINE
  5
5B4
  8
STR
 10
698.12818560479548
 20
1770.401908715734
 30
0.0
 11
718.12818560479525
 21
1770.401908715734
 31
0.0
  0
LINE
  5
5B6
  8
STR
 10
698.12818560479525
 20
1770.401908715734
 30
0.0
 11
652.12818560479479
 21
1816.401908715734
 31
0.0
  0
LINE
  5
5B7
  8
STR
 10
698.12818560479525
 20
2130.401908715734
 30
0.0
 11
652.12818560479479
 21
2084.401908715734
 31
0.0
  0
LINE
  5
5B8
  8
STR
 10
1013.128185604795
 20
1750.401908715734
 30
0.0
 11
1013.128185604795
 21
2150.4019087157349
 31
0.0
  0
LINE
  5
5B9
  8
STR
 10
963.12818560479502
 20
1785.401908715734
 30
0.0
 11
963.12818560479502
 21
2115.4019087157349
 31
0.0
  0
LINE
  5
5BD
  8
STR
 10
768.12818560479502
 20
1785.4019087157351
 30
0.0
 11
768.12818560479502
 21
1875.401908715734
 31
0.0
  0
LINE
  5
5C2
  8
BMK
 10
733.12818560479502
 20
2090.401908715734
 30
0.0
 11
733.12818560479502
 21
2130.401908715734
 31
0.0
  0
LINE
  5
5C3
  8
BMK
 10
753.12818560479502
 20
2110.401908715734
 30
0.0
 11
713.12818560479502
 21
2110.401908715734
 31
0.0
  0
LINE
  5
5C4
  8
BMK
 10
753.12818560479707
 20
1790.401908715734
 30
0.0
 11
713.12818560479695
 21
1790.401908715734
 31
0.0
  0
LINE
  5
5C5
  8
BMK
 10
733.12818560479673
 20
1810.401908715734
 30
0.0
 11
733.12818560479695
 21
1770.401908715734
 31
0.0
  0
LINE
  5
5C6
  8
BMK
 10
733.12818560479536
 20
1910.401908715734
 30
0.0
 11
733.12818560479604
 21
1870.401908715734
 31
0.0
  0
LINE
  5
5C7
  8
BMK
 10
753.12818560479582
 20
1890.401908715734
 30
0.0
 11
713.12818560479582
 21
1890.401908715734
 31
0.0
  0
LINE
  5
5C8
  8
STR
 10
1013.128185604795
 20
1750.401908715733
 30
0.0
 11
1013.128185604795
 21
2150.401908715734
 31
0.0
  0
LINE
  5
5C9
  8
STR
 10
948.12818560479491
 20
1785.401908715734
 30
0.0
 11
948.12818560479491
 21
2115.401908715734
 31
0.0
  0
LINE
  5
5CA
  8
STR
 10
768.12818560479502
 20
2115.4019087157349
 30
0.0
 11
948.12818560479491
 21
2115.4019087157349
 31
0.0
  0
LINE
  5
5CB
  8
STR
 10
768.12818560479502
 20
1785.401908715734
 30
0.0
 11
948.12818560479525
 21
1785.4019087157351
 31
0.0
  0
LINE
  5
5CE
  8
STR
 10
768.12818560479502
 20
2025.4019087157351
 30
0.0
 11
948.12818560479491
 21
2025.4019087157351
 31
0.0
  0
LINE
  5
5CF
  8
STR
 10
768.12818560479502
 20
1875.401908715734
 30
0.0
 11
948.12818560479491
 21
1875.401908715734
 31
0.0
  0
LINE
  5
5D0
  8
STR
 10
768.12818560479502
 20
2025.4019087157351
 30
0.0
 11
768.12818560479502
 21
2115.401908715734
 31
0.0
  0
LINE
  5
5D1
  8
STR
 10
963.12818560479502
 20
2115.4019087157349
 30
0.0
 11
1013.128185604795
 21
2115.4019087157349
 31
0.0
  0
LINE
  5
5D2
  8
STR
 10
963.12818560479502
 20
1785.401908715734
 30
0.0
 11
1013.128185604795
 21
1785.4019087157351
 31
0.0
  0
LINE
  5
5D3
  8
STR
 10
993.12818560479582
 20
1785.4019087157351
 30
0.0
 11
993.12818560479582
 21
2115.401908715734
 31
0.0
  0
LINE
  5
5D4
  8
STR
 10
718.12818560479491
 20
554.40190871573418
 30
0.0
 11
2018.1281856047949
 21
554.40190871573418
 31
0.0
  0
LINE
  5
5D5
  8
STR
 10
2790.5088344332748
 20
544.40190871573441
 30
0.0
 11
3190.5088344332762
 21
544.40190871573395
 31
0.0
  0
LINE
  5
5D6
  8
STR
 10
2790.5088344332748
 20
688.40190871573395
 30
0.0
 11
3190.5088344332762
 21
688.40190871573395
 31
0.0
  0
LINE
  5
5D8
  8
STR
 10
2790.5088344332748
 20
672.40190871573441
 30
0.0
 11
3190.5088344332762
 21
672.40190871573441
 31
0.0
  0
LINE
  5
5DB
  8
STR
 10
3155.5088344332762
 20
1068.401908715733
 30
0.0
 11
3155.5088344332762
 21
688.40190871573395
 31
0.0
  0
LINE
  5
5DC
  8
STR
 10
2825.5088344332748
 20
1068.401908715734
 30
0.0
 11
2825.5088344332748
 21
688.40190871573395
 31
0.0
  0
LINE
  5
5DD
  8
STR
 10
3190.5088344332762
 20
688.40190871573395
 30
0.0
 11
3190.5088344332762
 21
618.40190871573327
 31
0.0
  0
LINE
  5
5DE
  8
STR
 10
2790.5088344332762
 20
688.40190871573395
 30
0.0
 11
2790.5088344332771
 21
618.40190871573407
 31
0.0
  0
LINE
  5
5E1
  8
STR
 10
3190.5088344332762
 20
554.40190871573441
 30
0.0
 11
3190.5088344332762
 21
544.40190871573441
 31
0.0
  0
LINE
  5
5E3
  8
STR
 10
2790.5088344332748
 20
554.40190871573441
 30
0.0
 11
3190.5088344332762
 21
554.40190871573441
 31
0.0
  0
LINE
  5
5ED
  8
STR
 10
2890.5088344332748
 20
1148.401908715734
 30
0.0
 11
3090.5088344332771
 21
1148.401908715734
 31
0.0
  0
LINE
  5
5EE
  8
STR
 10
2890.5088344332748
 20
1118.401908715734
 30
0.0
 11
3090.508834433278
 21
1118.401908715734
 31
0.0
  0
LINE
  5
5EF
  8
STR
 10
2960.0250025201021
 20
1068.401908715734
 30
0.0
 11
3030.0250025201021
 21
1068.401908715734
 31
0.0
  0
LINE
  5
61A
  8
STR
 10
2018.1281856047981
 20
2125.401908715734
 30
0.0
 11
1013.128185604795
 21
2125.401908715734
 31
0.0
  0
LINE
  5
61B
  8
STR
 10
2018.1281856047981
 20
2070.401908715734
 30
0.0
 11
1043.128185604794
 21
2070.401908715734
 31
0.0
  0
LINE
  5
61C
  8
STR
 10
2018.1281856047981
 20
1775.4019087157351
 30
0.0
 11
1013.128185604795
 21
1775.4019087157351
 31
0.0
  0
LINE
  5
61D
  8
STR
 10
2018.1281856047981
 20
1830.401908715736
 30
0.0
 11
1043.128185604794
 21
1830.4019087157351
 31
0.0
  0
LINE
  5
61F
  8
STR
 10
2018.1281856047981
 20
1750.401908715734
 30
0.0
 11
2018.128185604799
 21
2150.4019087157349
 31
0.0
  0
LINE
  5
620
  8
STR
 10
1198.128185604794
 20
2150.401908715734
 30
0.0
 11
1318.1281856047949
 21
2150.4019087157349
 31
0.0
  0
LINE
  5
621
  8
STR
 10
1198.128185604794
 20
1750.401908715734
 30
0.0
 11
1318.1281856047949
 21
1750.401908715734
 31
0.0
  0
LINE
  5
622
  8
STR
 10
1898.1281856047981
 20
1750.401908715734
 30
0.0
 11
1898.1281856047981
 21
2150.4019087157349
 31
0.0
  0
LINE
  5
623
  8
STR
 10
1718.128185604794
 20
1750.4019087157351
 30
0.0
 11
1718.128185604794
 21
2150.4019087157349
 31
0.0
  0
LINE
  5
624
  8
STR
 10
1598.128185604794
 20
1750.4019087157351
 30
0.0
 11
1598.128185604794
 21
2150.4019087157349
 31
0.0
  0
LINE
  5
625
  8
STR
 10
1898.1281856047981
 20
2150.4019087157349
 30
0.0
 11
2018.1281856047981
 21
2150.4019087157349
 31
0.0
  0
LINE
  5
626
  8
STR
 10
1898.1281856047981
 20
1750.401908715734
 30
0.0
 11
2018.1281856047981
 21
1750.401908715734
 31
0.0
  0
LINE
  5
627
  8
STR
 10
1318.1281856047949
 20
1750.401908715734
 30
0.0
 11
1318.1281856047949
 21
2150.4019087157349
 31
0.0
  0
LINE
  5
629
  8
STR
 10
1198.128185604794
 20
1750.401908715734
 30
0.0
 11
1198.128185604794
 21
2150.4019087157349
 31
0.0
  0
LINE
  5
62A
  8
STR
 10
1598.128185604794
 20
2150.4019087157349
 30
0.0
 11
1718.128185604794
 21
2150.4019087157349
 31
0.0
  0
LINE
  5
62B
  8
STR
 10
1598.128185604794
 20
1750.401908715734
 30
0.0
 11
1718.128185604794
 21
1750.401908715734
 31
0.0
  0
LINE
  5
62C
  8
STR
 10
1348.128185604794
 20
1860.401908715734
 30
0.0
 11
1348.128185604794
 21
2040.401908715734
 31
0.0
  0
LINE
  5
62E
  8
STR
 10
1348.128185604794
 20
2040.401908715734
 30
0.0
 11
1043.128185604794
 21
2040.4019087157351
 31
0.0
  0
LINE
  5
62F
  8
STR
 10
1348.128185604794
 20
1860.401908715734
 30
0.0
 11
1043.128185604794
 21
1860.401908715733
 31
0.0
  0
LINE
  5
630
  8
STR
 10
1023.128185604795
 20
1820.401908715736
 30
0.0
 11
1023.128185604795
 21
2080.401908715733
 31
0.0
  0
LINE
  5
631
  8
STR
 10
1043.128185604794
 20
1820.401908715736
 30
0.0
 11
1043.128185604794
 21
2080.401908715733
 31
0.0
  0
LINE
  5
632
  8
STR
 10
1043.128185604794
 20
2080.401908715733
 30
0.0
 11
1023.128185604795
 21
2080.401908715733
 31
0.0
  0
LINE
  5
633
  8
STR
 10
1043.128185604794
 20
1820.401908715736
 30
0.0
 11
1023.128185604795
 21
1820.401908715736
 31
0.0
  0
LINE
  5
634
  8
STR
 10
1023.128185604795
 20
2040.4019087157351
 30
0.0
 11
1013.128185604795
 21
2040.401908715734
 31
0.0
  0
LINE
  5
635
  8
STR
 10
1023.128185604795
 20
2070.401908715734
 30
0.0
 11
1013.128185604795
 21
2070.401908715734
 31
0.0
  0
LINE
  5
636
  8
STR
 10
1023.128185604795
 20
1830.4019087157351
 30
0.0
 11
1013.128185604795
 21
1830.4019087157351
 31
0.0
  0
LINE
  5
637
  8
STR
 10
1023.128185604795
 20
1860.401908715733
 30
0.0
 11
1013.128185604795
 21
1860.401908715733
 31
0.0
  0
LINE
  5
640
  8
BMK
 10
1043.128185604794
 20
2110.401908715734
 30
0.0
 11
1003.128185604795
 21
2110.401908715734
 31
0.0
  0
LINE
  5
641
  8
BMK
 10
1023.128185604795
 20
2090.401908715734
 30
0.0
 11
1023.128185604795
 21
2130.401908715734
 31
0.0
  0
LINE
  5
642
  8
BMK
 10
1023.128185604795
 20
1990.401908715734
 30
0.0
 11
1023.128185604795
 21
2030.4019087157351
 31
0.0
  0
LINE
  5
643
  8
BMK
 10
1043.128185604794
 20
2010.401908715734
 30
0.0
 11
1003.128185604795
 21
2010.401908715734
 31
0.0
  0
LINE
  5
644
  8
BMK
 10
1043.128185604796
 20
1890.401908715734
 30
0.0
 11
1003.128185604795
 21
1890.401908715734
 31
0.0
  0
LINE
  5
645
  8
BMK
 10
1023.128185604795
 20
1910.401908715734
 30
0.0
 11
1023.128185604796
 21
1870.401908715734
 31
0.0
  0
LINE
  5
646
  8
BMK
 10
1023.128185604797
 20
1810.401908715734
 30
0.0
 11
1023.128185604797
 21
1770.401908715734
 31
0.0
  0
LINE
  5
647
  8
BMK
 10
1043.128185604797
 20
1790.401908715734
 30
0.0
 11
1003.128185604797
 21
1790.401908715734
 31
0.0
  0
LINE
  5
649
  8
BMK
 10
1313.128185604794
 20
2110.401908715734
 30
0.0
 11
1273.128185604794
 21
2110.401908715734
 31
0.0
  0
LINE
  5
64A
  8
BMK
 10
1293.1281856047949
 20
2090.401908715734
 30
0.0
 11
1293.1281856047949
 21
2130.401908715734
 31
0.0
  0
LINE
  5
64F
  8
BMK
 10
1293.128185604796
 20
1810.401908715734
 30
0.0
 11
1293.128185604797
 21
1770.401908715734
 31
0.0
  0
LINE
  5
650
  8
BMK
 10
1313.128185604797
 20
1790.401908715734
 30
0.0
 11
1273.128185604797
 21
1790.401908715734
 31
0.0
  0
LINE
  5
659
  8
BMK
 10
1823.128185604797
 20
1790.401908715734
 30
0.0
 11
1783.128185604797
 21
1790.401908715734
 31
0.0
  0
LINE
  5
65A
  8
BMK
 10
1803.128185604797
 20
1810.401908715734
 30
0.0
 11
1803.128185604797
 21
1770.401908715734
 31
0.0
  0
LINE
  5
65F
  8
BMK
 10
1803.128185604794
 20
2090.401908715734
 30
0.0
 11
1803.128185604794
 21
2130.401908715734
 31
0.0
  0
LINE
  5
660
  8
BMK
 10
1823.128185604794
 20
2110.401908715734
 30
0.0
 11
1783.1281856047949
 21
2110.401908715734
 31
0.0
  0
LINE
  5
661
  8
BMK
 10
1493.1281856047949
 20
2110.401908715734
 30
0.0
 11
1533.1281856047949
 21
2110.401908715734
 31
0.0
  0
LINE
  5
662
  8
BMK
 10
1513.128185604794
 20
2090.401908715734
 30
0.0
 11
1513.128185604794
 21
2130.401908715734
 31
0.0
  0
LINE
  5
667
  8
BMK
 10
1513.128185604794
 20
1810.401908715734
 30
0.0
 11
1513.1281856047931
 21
1770.401908715734
 31
0.0
  0
LINE
  5
668
  8
BMK
 10
1493.128185604794
 20
1790.401908715734
 30
0.0
 11
1533.128185604794
 21
1790.401908715734
 31
0.0
  0
LINE
  5
669
  8
BMK
 10
1638.1281856047931
 20
1790.401908715734
 30
0.0
 11
1678.1281856047931
 21
1790.401908715734
 31
0.0
  0
LINE
  5
66A
  8
BMK
 10
1658.128185604794
 20
1810.401908715734
 30
0.0
 11
1658.1281856047931
 21
1770.401908715734
 31
0.0
  0
LINE
  5
66F
  8
BMK
 10
1658.1281856047949
 20
2090.401908715734
 30
0.0
 11
1658.1281856047949
 21
2130.401908715734
 31
0.0
  0
LINE
  5
670
  8
BMK
 10
1638.1281856047949
 20
2110.401908715734
 30
0.0
 11
1678.128185604794
 21
2110.401908715734
 31
0.0
  0
LINE
  5
671
  8
BMK
 10
1938.1281856047981
 20
2110.401908715734
 30
0.0
 11
1978.1281856047981
 21
2110.401908715734
 31
0.0
  0
LINE
  5
672
  8
BMK
 10
1958.1281856047981
 20
2090.401908715734
 30
0.0
 11
1958.1281856047981
 21
2130.401908715734
 31
0.0
  0
LINE
  5
677
  8
BMK
 10
1958.128185604797
 20
1810.401908715734
 30
0.0
 11
1958.128185604796
 21
1770.401908715734
 31
0.0
  0
LINE
  5
678
  8
BMK
 10
1938.128185604796
 20
1790.401908715734
 30
0.0
 11
1978.128185604796
 21
1790.401908715734
 31
0.0
  0
LINE
  5
67B
  8
STR
 10
1598.1281856047931
 20
544.40190871573441
 30
0.0
 11
1718.128185604792
 21
544.40190871573395
 31
0.0
  0
LINE
  5
67C
  8
STR
 10
1898.128185604794
 20
544.40190871573395
 30
0.0
 11
2018.1281856047949
 21
544.40190871573441
 31
0.0
  0
LINE
  5
67D
  8
STR
 10
1198.128185604792
 20
544.40190871573441
 30
0.0
 11
1318.128185604792
 21
544.40190871573441
 31
0.0
  0
LINE
  5
67E
  8
STR
 10
1898.128185604794
 20
544.40190871573395
 30
0.0
 11
1898.128185604794
 21
554.40190871573418
 31
0.0
  0
LINE
  5
67F
  8
STR
 10
1598.1281856047931
 20
544.40190871573441
 30
0.0
 11
1598.1281856047931
 21
554.40190871573418
 31
0.0
  0
LINE
  5
680
  8
STR
 10
1318.128185604792
 20
544.40190871573441
 30
0.0
 11
1318.128185604792
 21
554.40190871573395
 31
0.0
  0
LINE
  5
681
  8
STR
 10
1198.128185604792
 20
544.40190871573441
 30
0.0
 11
1198.128185604792
 21
554.40190871573395
 31
0.0
  0
LINE
  5
682
  8
STR
 10
696.12818560479491
 20
544.40190871573395
 30
0.0
 11
718.12818560479491
 21
544.40190871573395
 31
0.0
  0
LINE
  5
683
  8
STR
 10
718.12818560479491
 20
544.40190871573441
 30
0.0
 11
838.12818560479479
 21
544.40190871573441
 31
0.0
  0
LINE
  5
684
  8
STR
 10
838.12818560479479
 20
544.40190871573441
 30
0.0
 11
838.12818560479479
 21
554.40190871573395
 31
0.0
  0
LINE
  5
686
  8
BMK
 10
1023.128185604797
 20
692.40190871573429
 30
0.0
 11
1023.128185604797
 21
632.40190871573441
 31
0.0
  0
LINE
  5
687
  8
BMK
 10
1293.128185604796
 20
692.40190871573429
 30
0.0
 11
1293.128185604797
 21
632.40190871573395
 31
0.0
  0
LINE
  5
688
  8
BMK
 10
1513.1281856047931
 20
692.40190871573395
 30
0.0
 11
1513.1281856047931
 21
632.40190871573395
 31
0.0
  0
LINE
  5
689
  8
BMK
 10
1658.1281856047931
 20
692.40190871573395
 30
0.0
 11
1658.128185604792
 21
632.40190871573395
 31
0.0
  0
LINE
  5
68A
  8
BMK
 10
1803.128185604796
 20
692.40190871573429
 30
0.0
 11
1803.128185604797
 21
632.40190871573395
 31
0.0
  0
LINE
  5
68B
  8
BMK
 10
1958.128185604796
 20
692.40190871573395
 30
0.0
 11
1958.1281856047949
 21
632.40190871573395
 31
0.0
  0
LINE
  5
690
  8
STR
 10
664.12818560479479
 20
558.40190871573441
 30
0.0
 11
664.12818560479525
 21
568.40190871573407
 31
0.0
  0
LINE
  5
691
  8
STR
 10
684.12818560479479
 20
558.40190871573441
 30
0.0
 11
684.12818560479479
 21
568.40190871573441
 31
0.0
  0
LINE
  5
694
  8
STR
 10
684.12818560479479
 20
658.40190871573441
 30
0.0
 11
664.12818560479479
 21
658.40190871573441
 31
0.0
  0
LINE
  5
695
  8
STR
 10
684.12818560479479
 20
558.40190871573418
 30
0.0
 11
664.12818560479479
 21
558.40190871573418
 31
0.0
  0
LINE
  5
696
  8
STR
 10
664.12818560479525
 20
593.40190871573407
 30
0.0
 11
664.12818560479479
 21
623.40190871573441
 31
0.0
  0
LINE
  5
697
  8
STR
 10
684.12818560479479
 20
593.40190871573441
 30
0.0
 11
684.12818560479479
 21
623.40190871573441
 31
0.0
  0
LINE
  5
698
  8
STR
 10
684.12818560479479
 20
648.40190871573441
 30
0.0
 11
684.12818560479479
 21
658.40190871573395
 31
0.0
  0
LINE
  5
699
  8
STR
 10
664.12818560479479
 20
648.40190871573395
 30
0.0
 11
664.12818560479479
 21
658.40190871573441
 31
0.0
  0
LINE
  5
69A
  8
BMK
 10
674.12818560479468
 20
668.40190871573441
 30
0.0
 11
674.12818560479468
 21
548.40190871573395
 31
0.0
  0
LINE
  5
837
  8
BMK
 10
2830.5088344332762
 20
708.40190871573384
 30
0.0
 11
2830.5088344332739
 21
598.40190871573395
 31
0.0
  0
LINE
  5
83B
  8
STR
 10
2850.5088344332762
 20
672.40190871573486
 30
0.0
 11
3130.5088344332748
 21
672.40190871573361
 31
0.0
  0
LINE
  5
83E
  8
BMK
 10
3150.5088344332762
 20
708.4019087157352
 30
0.0
 11
3150.5088344332789
 21
598.40190871573543
 31
0.0
  0
LINE
  5
843
  8
STR
 10
2950.5088344332748
 20
672.40190871573407
 30
0.0
 11
3030.5088344332762
 21
672.40190871573452
 31
0.0
  0
LINE
  5
845
  8
BMK
 10
2930.5088344332762
 20
708.40190871573395
 30
0.0
 11
2930.5088344332739
 21
598.40190871573452
 31
0.0
  0
LINE
  5
846
  8
BMK
 10
3050.5088344332762
 20
708.4019087157335
 30
0.0
 11
3050.508834433273
 21
598.40190871573373
 31
0.0
  0
LINE
  5
9DA
  8
STR
 10
818.12818560480002
 20
2025.4019087157351
 30
0.0
 11
818.12818560479968
 21
1875.401908715734
 31
0.0
  0
LINE
  5
9DB
  8
STR
 10
868.12818560480002
 20
2025.4019087157351
 30
0.0
 11
868.12818560479968
 21
1875.401908715734
 31
0.0
  0
LINE
  5
9DC
  8
BMK
 10
738.12818560479502
 20
2070.4019087157349
 30
0.0
 11
1003.128185604795
 21
2070.4019087157349
 31
0.0
  0
LINE
  5
9DD
  8
BMK
 10
738.12818560479525
 20
1830.401908715734
 30
0.0
 11
1003.128185604795
 21
1830.401908715734
 31
0.0
  0
LINE
  5
A39
  8
STR
 10
1038.1281856047949
 20
968.40190871573395
 30
0.0
 11
1038.1281856047949
 21
808.40190871573395
 31
0.0
  0
LINE
  5
A3C
  8
STR
 10
1038.1281856047949
 20
968.40190871573395
 30
0.0
 11
1048.128185604794
 21
968.40190871573395
 31
0.0
  0
LINE
  5
A3D
  8
STR
 10
1038.1281856047949
 20
808.40190871573395
 30
0.0
 11
1048.128185604794
 21
808.40190871573395
 31
0.0
  0
LINE
  5
B71
  8
STR
 10
1060.003185604794
 20
688.40190871573407
 30
0.0
 11
1197.2817219679091
 21
688.40190871573407
 31
0.0
  0
LINE
  5
B72
  8
STR
 10
1060.003185604794
 20
672.40190871573407
 30
0.0
 11
1197.2817219679091
 21
672.40190871573407
 31
0.0
  0
LINE
  5
B73
  8
STR
 10
1196.0317219679091
 20
708.40190871573395
 30
0.0
 11
1196.0317219679091
 21
728.40190871573395
 31
0.0
  0
LINE
  5
B74
  8
STR
 10
1196.0317219679091
 20
652.40190871573395
 30
0.0
 11
1196.0317219679091
 21
572.40190871573407
 31
0.0
  0
LINE
  5
B75
  8
STR
 10
1196.0317219679091
 20
688.40190871573407
 30
0.0
 11
1196.0317219679091
 21
672.40190871573407
 31
0.0
  0
LINE
  5
B79
  8
STR
 10
652.12818560479479
 20
567.77690871573395
 30
0.0
 11
652.12818560479479
 21
325.31220573779137
 31
0.0
  0
LINE
  5
B7A
  8
STR
 10
2018.1281856047949
 20
543.77690871573418
 30
0.0
 11
2018.1281856047949
 21
325.31220573779137
 31
0.0
  0
LINE
  5
B7B
  8
STR
 10
672.12818560479479
 20
326.56220573779137
 30
0.0
 11
1998.128185604794
 21
326.56220573779137
 31
0.0
  0
LINE
  5
B7F
  8
STR
 10
652.12818560479479
 20
567.77690871573395
 30
0.0
 11
652.12818560479479
 21
397.97830829584672
 31
0.0
  0
LINE
  5
B80
  8
STR
 10
1718.128185604792
 20
543.77690871573418
 30
0.0
 11
1718.128185604792
 21
397.97830829584672
 31
0.0
  0
LINE
  5
B81
  8
STR
 10
672.12818560479479
 20
399.22830829584649
 30
0.0
 11
1698.128185604792
 21
399.22830829584649
 31
0.0
  0
LINE
  5
B85
  8
STR
 10
2825.5088344332748
 20
1229.026908715734
 30
0.0
 11
2825.5088344332748
 21
1371.7924863419869
 31
0.0
  0
LINE
  5
B86
  8
STR
 10
3155.5088344332762
 20
1229.026908715734
 30
0.0
 11
3155.5088344332762
 21
1371.7924863419869
 31
0.0
  0
LINE
  5
B87
  8
STR
 10
2845.5088344332748
 20
1370.542486341986
 30
0.0
 11
3135.5088344332748
 21
1370.542486341986
 31
0.0
  0
LINE
  5
B8B
  8
STR
 10
2790.5088344332748
 20
533.77690871573441
 30
0.0
 11
2790.5088344332748
 21
403.79355146076603
 31
0.0
  0
LINE
  5
B8C
  8
STR
 10
3190.5088344332762
 20
533.77690871573395
 30
0.0
 11
3190.5088344332762
 21
403.79355146076603
 31
0.0
  0
LINE
  5
B8D
  8
STR
 10
2810.5088344332748
 20
405.04355146076603
 30
0.0
 11
3170.5088344332762
 21
405.04355146076603
 31
0.0
  0
LINE
  5
B91
  8
STR
 10
1356.503185604794
 20
544.40190871573441
 30
0.0
 11
1355.8781856047949
 21
544.40190871573441
 31
0.0
  0
LINE
  5
B92
  8
STR
 10
1356.503185604794
 20
672.40190871573407
 30
0.0
 11
1355.8781856047949
 21
672.40190871573407
 31
0.0
  0
LINE
  5
B93
  8
STR
 10
1357.128185604794
 20
564.40190871573441
 30
0.0
 11
1357.128185604794
 21
652.40190871573395
 31
0.0
  0
LINE
  5
B97
  8
STR
 10
2028.7531856047949
 20
544.40190871573395
 30
0.0
 11
2255.5665518668429
 21
544.40190871573395
 31
0.0
  0
LINE
  5
B98
  8
STR
 10
1278.177647941598
 20
1218.401908715734
 30
0.0
 11
2255.5665518668429
 21
1218.401908715734
 31
0.0
  0
LINE
  5
B99
  8
STR
 10
2254.3165518668429
 20
564.40190871573407
 30
0.0
 11
2254.3165518668429
 21
1198.401908715734
 31
0.0
  0
LINE
  5
B9D
  8
STR
 10
2028.7531856047949
 20
544.40190871573395
 30
0.0
 11
2184.1642891396082
 21
544.40190871573395
 31
0.0
  0
LINE
  5
B9E
  8
STR
 10
2182.2892891396082
 20
888.40190871573407
 30
0.0
 11
2181.6642891396082
 21
888.40190871573407
 31
0.0
  0
LINE
  5
B9F
  8
STR
 10
2182.9142891396082
 20
564.40190871573407
 30
0.0
 11
2182.9142891396082
 21
868.40190871573395
 31
0.0
  0
LINE
  5
BA3
  8
STR
 10
2028.7531856047949
 20
544.40190871573395
 30
0.0
 11
2110.0543492402612
 21
544.40190871573395
 31
0.0
  0
LINE
  5
BA4
  8
STR
 10
2028.7531856047949
 20
688.40190871573384
 30
0.0
 11
2110.0543492402612
 21
688.40190871573384
 31
0.0
  0
LINE
  5
BA5
  8
STR
 10
2108.8043492402612
 20
564.40190871573407
 30
0.0
 11
2108.8043492402612
 21
668.40190871573373
 31
0.0
  0
LINE
  5
BA9
  8
STR
 10
1194.1567219679091
 20
888.40190871573395
 30
0.0
 11
1193.5317219679091
 21
888.40190871573395
 31
0.0
  0
LINE
  5
BAA
  8
STR
 10
1059.3781856047949
 20
688.40190871573407
 30
0.0
 11
1196.0317219679091
 21
688.40190871573407
 31
0.0
  0
LINE
  5
BAB
  8
STR
 10
1194.7817219679091
 20
868.40190871573395
 30
0.0
 11
1194.7817219679091
 21
708.40190871573395
 31
0.0
  0
LINE
  5
BAF
  8
STR
 10
1059.3781856047949
 20
1218.401908715734
 30
0.0
 11
1277.5526479415989
 21
1218.401908715734
 31
0.0
  0
LINE
  5
BB0
  8
STR
 10
1275.6776479415989
 20
888.40190871573395
 30
0.0
 11
1275.052647941598
 21
888.40190871573395
 31
0.0
  0
LINE
  5
BB1
  8
STR
 10
1276.3026479415989
 20
1198.401908715734
 30
0.0
 11
1276.3026479415989
 21
908.40190871573395
 31
0.0
  0
LINE
  5
BB5
  8
STR
 10
768.12818560479491
 20
1229.026908715734
 30
0.0
 11
768.12818560479491
 21
1317.7981330149439
 31
0.0
  0
LINE
  5
BB6
  8
STR
 10
1048.128185604794
 20
1229.026908715734
 30
0.0
 11
1048.128185604794
 21
1317.7981330149439
 31
0.0
  0
LINE
  5
BB7
  8
STR
 10
788.12818560479491
 20
1316.5481330149439
 30
0.0
 11
1028.1281856047949
 21
1316.5481330149439
 31
0.0
  0
LINE
  5
BBB
  8
STR
 10
718.12818560479525
 20
1739.776908715734
 30
0.0
 11
718.12818560479525
 21
1618.1685020949169
 31
0.0
  0
LINE
  5
BBC
  8
STR
 10
1718.128185604794
 20
1739.776908715734
 30
0.0
 11
1718.128185604794
 21
1618.1685020949169
 31
0.0
  0
LINE
  5
BBD
  8
STR
 10
738.12818560479525
 20
1619.4185020949169
 30
0.0
 11
1698.128185604794
 21
1619.4185020949169
 31
0.0
  0
LINE
  5
BC1
  8
STR
 10
718.12818560479525
 20
1739.151908715734
 30
0.0
 11
718.12818560479525
 21
1554.015262426062
 31
0.0
  0
LINE
  5
BC2
  8
STR
 10
2018.1281856047981
 20
1739.776908715734
 30
0.0
 11
2018.1281856047981
 21
1554.015262426062
 31
0.0
  0
LINE
  5
BC3
  8
STR
 10
738.12818560479525
 20
1555.265262426062
 30
0.0
 11
1998.1281856047981
 21
1555.265262426062
 31
0.0
  0
TEXT
  5
BC6
  8
STR
 10
1369.4769748648439
 20
1562.814486991047
 30
0.0
 40
30.0
  1
1300
  0
LINE
  5
BC7
  8
STR
 10
652.12818560479479
 20
1739.776908715734
 30
0.0
 11
652.12818560479479
 21
1554.015262426062
 31
0.0
  0
LINE
  5
BC8
  8
STR
 10
718.12818560479525
 20
1739.776908715734
 30
0.0
 11
718.12818560479525
 21
1554.015262426062
 31
0.0
  0
LINE
  5
BC9
  8
STR
 10
672.12818560479502
 20
1555.265262426062
 30
0.0
 11
698.12818560479548
 21
1555.265262426062
 31
0.0
  0
TEXT
  5
BCD
  8
STR
 62
     0
 10
660.12818560479525
 20
1565.2652624260629
 30
0.0
 40
30.0
  1
66
  0
LINE
  5
BCE
  8
STR
  6
BYBLOCK
 62
     0
 10
698.12818560479525
 20
1560.624246226062
 30
0.0
 11
718.12818560479525
 21
1555.265262426062
 31
0.0
  0
LINE
  5
BCF
  8
STR
  6
BYBLOCK
 62
     0
 10
718.12818560479525
 20
1555.265262426062
 30
0.0
 11
698.12818560479525
 21
1549.906278626062
 31
0.0
  0
LINE
  5
BD0
  8
STR
  6
BYBLOCK
 62
     0
 10
718.12818560479525
 20
1555.265262426062
 30
0.0
 11
698.12818560479525
 21
1555.265262426062
 31
0.0
  0
LINE
  5
BD1
  8
STR
  6
BYBLOCK
 62
     0
 10
672.12818560479479
 20
1549.906278626062
 30
0.0
 11
652.12818560479479
 21
1555.265262426062
 31
0.0
  0
LINE
  5
BD2
  8
STR
  6
BYBLOCK
 62
     0
 10
652.12818560479479
 20
1555.265262426062
 30
0.0
 11
672.12818560479479
 21
1560.624246226062
 31
0.0
  0
LINE
  5
BD3
  8
STR
  6
BYBLOCK
 62
     0
 10
652.12818560479479
 20
1555.265262426062
 30
0.0
 11
672.12818560479479
 21
1555.265262426062
 31
0.0
  0
LINE
  5
BD4
  8
STR
  6
BYBLOCK
 62
     0
 10
1998.1281856047981
 20
1560.624246226062
 30
0.0
 11
2018.1281856047981
 21
1555.265262426062
 31
0.0
  0
LINE
  5
BD5
  8
STR
  6
BYBLOCK
 62
     0
 10
2018.1281856047981
 20
1555.265262426062
 30
0.0
 11
1998.1281856047981
 21
1549.906278626062
 31
0.0
  0
LINE
  5
BD6
  8
STR
  6
BYBLOCK
 62
     0
 10
2018.1281856047981
 20
1555.265262426062
 30
0.0
 11
1998.1281856047981
 21
1555.265262426062
 31
0.0
  0
LINE
  5
BD7
  8
STR
  6
BYBLOCK
 62
     0
 10
738.12818560479525
 20
1549.906278626062
 30
0.0
 11
718.12818560479525
 21
1555.265262426062
 31
0.0
  0
LINE
  5
BD8
  8
STR
  6
BYBLOCK
 62
     0
 10
718.12818560479525
 20
1555.265262426062
 30
0.0
 11
738.12818560479525
 21
1560.624246226062
 31
0.0
  0
LINE
  5
BD9
  8
STR
  6
BYBLOCK
 62
     0
 10
718.12818560479525
 20
1555.265262426062
 30
0.0
 11
738.12818560479525
 21
1555.265262426062
 31
0.0
  0
TEXT
  5
BDA
  8
STR
 62
     0
 10
1106.6281856047949
 20
1629.4185020949169
 30
0.0
 40
30.0
  1
1000 (800)
  0
LINE
  5
BDB
  8
STR
  6
BYBLOCK
 62
     0
 10
1698.128185604794
 20
1624.7774858949169
 30
0.0
 11
1718.128185604794
 21
1619.4185020949169
 31
0.0
  0
LINE
  5
BDC
  8
STR
  6
BYBLOCK
 62
     0
 10
1718.128185604794
 20
1619.4185020949169
 30
0.0
 11
1698.128185604794
 21
1614.059518294916
 31
0.0
  0
LINE
  5
BDD
  8
STR
  6
BYBLOCK
 62
     0
 10
1718.128185604794
 20
1619.4185020949169
 30
0.0
 11
1698.128185604794
 21
1619.4185020949169
 31
0.0
  0
LINE
  5
BDE
  8
STR
  6
BYBLOCK
 62
     0
 10
738.12818560479525
 20
1614.059518294916
 30
0.0
 11
718.12818560479525
 21
1619.4185020949169
 31
0.0
  0
LINE
  5
BDF
  8
STR
  6
BYBLOCK
 62
     0
 10
718.12818560479525
 20
1619.4185020949169
 30
0.0
 11
738.12818560479525
 21
1624.7774858949169
 31
0.0
  0
LINE
  5
BE0
  8
STR
  6
BYBLOCK
 62
     0
 10
718.12818560479525
 20
1619.4185020949169
 30
0.0
 11
738.12818560479525
 21
1619.4185020949169
 31
0.0
  0
TEXT
  5
BE1
  8
STR
 62
     0
 10
870.62818560479491
 20
1326.5481330149439
 30
0.0
 40
30.0
  1
280
  0
LINE
  5
BE2
  8
STR
  6
BYBLOCK
 62
     0
 10
1028.1281856047949
 20
1321.9071168149439
 30
0.0
 11
1048.128185604794
 21
1316.5481330149439
 31
0.0
  0
LINE
  5
BE3
  8
STR
  6
BYBLOCK
 62
     0
 10
1048.128185604794
 20
1316.5481330149439
 30
0.0
 11
1028.1281856047949
 21
1311.1891492149441
 31
0.0
  0
LINE
  5
BE4
  8
STR
  6
BYBLOCK
 62
     0
 10
1048.128185604794
 20
1316.5481330149439
 30
0.0
 11
1028.1281856047949
 21
1316.5481330149439
 31
0.0
  0
LINE
  5
BE5
  8
STR
  6
BYBLOCK
 62
     0
 10
788.12818560479491
 20
1311.1891492149441
 30
0.0
 11
768.12818560479491
 21
1316.5481330149439
 31
0.0
  0
LINE
  5
BE6
  8
STR
  6
BYBLOCK
 62
     0
 10
768.12818560479491
 20
1316.5481330149439
 30
0.0
 11
788.12818560479491
 21
1321.9071168149439
 31
0.0
  0
LINE
  5
BE7
  8
STR
  6
BYBLOCK
 62
     0
 10
768.12818560479491
 20
1316.5481330149439
 30
0.0
 11
788.12818560479491
 21
1316.5481330149439
 31
0.0
  0
TEXT
  5
BE8
  8
STR
 62
     0
 10
1266.302647941598
 20
1015.901908715734
 30
0.0
 40
30.0
  1
330
 50
90.0
  0
LINE
  5
BE9
  8
STR
  6
BYBLOCK
 62
     0
 10
1281.661631741599
 20
908.40190871573395
 30
0.0
 11
1276.3026479415989
 21
888.40190871573395
 31
0.0
  0
LINE
  5
BEA
  8
STR
  6
BYBLOCK
 62
     0
 10
1276.3026479415989
 20
888.40190871573395
 30
0.0
 11
1270.943664141598
 21
908.40190871573395
 31
0.0
  0
LINE
  5
BEB
  8
STR
  6
BYBLOCK
 62
     0
 10
1276.3026479415989
 20
888.40190871573395
 30
0.0
 11
1276.3026479415989
 21
908.40190871573395
 31
0.0
  0
LINE
  5
BEC
  8
STR
  6
BYBLOCK
 62
     0
 10
1270.943664141598
 20
1198.401908715734
 30
0.0
 11
1276.3026479415989
 21
1218.401908715734
 31
0.0
  0
LINE
  5
BED
  8
STR
  6
BYBLOCK
 62
     0
 10
1276.3026479415989
 20
1218.401908715734
 30
0.0
 11
1281.661631741599
 21
1198.401908715734
 31
0.0
  0
LINE
  5
BEE
  8
STR
  6
BYBLOCK
 62
     0
 10
1276.3026479415989
 20
1218.401908715734
 30
0.0
 11
1276.3026479415989
 21
1198.401908715734
 31
0.0
  0
TEXT
  5
BEF
  8
STR
 62
     0
 10
1184.7817219679091
 20
753.40190871573395
 30
0.0
 40
30.0
  1
200
 50
90.0
  0
LINE
  5
BF0
  8
STR
  6
BYBLOCK
 62
     0
 10
1200.1407057679089
 20
708.40190871573395
 30
0.0
 11
1194.7817219679091
 21
688.40190871573407
 31
0.0
  0
LINE
  5
BF1
  8
STR
  6
BYBLOCK
 62
     0
 10
1194.7817219679091
 20
688.40190871573407
 30
0.0
 11
1189.4227381679091
 21
708.40190871573395
 31
0.0
  0
LINE
  5
BF2
  8
STR
  6
BYBLOCK
 62
     0
 10
1194.7817219679091
 20
688.40190871573407
 30
0.0
 11
1194.7817219679091
 21
708.40190871573395
 31
0.0
  0
LINE
  5
BF3
  8
STR
  6
BYBLOCK
 62
     0
 10
1189.4227381679091
 20
868.40190871573395
 30
0.0
 11
1194.7817219679091
 21
888.40190871573395
 31
0.0
  0
LINE
  5
BF4
  8
STR
  6
BYBLOCK
 62
     0
 10
1194.7817219679091
 20
888.40190871573395
 30
0.0
 11
1200.1407057679089
 21
868.40190871573395
 31
0.0
  0
LINE
  5
BF5
  8
STR
  6
BYBLOCK
 62
     0
 10
1194.7817219679091
 20
888.40190871573395
 30
0.0
 11
1194.7817219679091
 21
868.40190871573395
 31
0.0
  0
TEXT
  5
BF6
  8
STR
 62
     0
 10
2098.8043492402612
 20
581.40190871573395
 30
0.0
 40
30.0
  1
144
 50
90.0
  0
LINE
  5
BF7
  8
STR
  6
BYBLOCK
 62
     0
 10
2103.445365440261
 20
668.40190871573384
 30
0.0
 11
2108.8043492402612
 21
688.40190871573384
 31
0.0
  0
LINE
  5
BF8
  8
STR
  6
BYBLOCK
 62
     0
 10
2108.8043492402612
 20
688.40190871573384
 30
0.0
 11
2114.163333040261
 21
668.40190871573384
 31
0.0
  0
LINE
  5
BF9
  8
STR
  6
BYBLOCK
 62
     0
 10
2108.8043492402612
 20
688.40190871573384
 30
0.0
 11
2108.8043492402612
 21
668.40190871573384
 31
0.0
  0
LINE
  5
BFA
  8
STR
  6
BYBLOCK
 62
     0
 10
2114.163333040261
 20
564.40190871573407
 30
0.0
 11
2108.8043492402612
 21
544.40190871573395
 31
0.0
  0
LINE
  5
BFB
  8
STR
  6
BYBLOCK
 62
     0
 10
2108.8043492402612
 20
544.40190871573395
 30
0.0
 11
2103.445365440261
 21
564.40190871573407
 31
0.0
  0
LINE
  5
BFC
  8
STR
  6
BYBLOCK
 62
     0
 10
2108.8043492402612
 20
544.40190871573395
 30
0.0
 11
2108.8043492402612
 21
564.40190871573407
 31
0.0
  0
TEXT
  5
BFD
  8
STR
 62
     0
 10
2172.9142891396082
 20
676.40190871573452
 30
0.0
 40
30.0
  1
344
 50
90.0
  0
LINE
  5
BFE
  8
STR
  6
BYBLOCK
 62
     0
 10
2177.5553053396079
 20
868.40190871573395
 30
0.0
 11
2182.9142891396082
 21
888.40190871573407
 31
0.0
  0
LINE
  5
BFF
  8
STR
  6
BYBLOCK
 62
     0
 10
2182.9142891396082
 20
888.40190871573407
 30
0.0
 11
2188.2732729396071
 21
868.40190871573395
 31
0.0
  0
LINE
  5
C00
  8
STR
  6
BYBLOCK
 62
     0
 10
2182.9142891396082
 20
888.40190871573407
 30
0.0
 11
2182.9142891396082
 21
868.40190871573395
 31
0.0
  0
LINE
  5
C01
  8
STR
  6
BYBLOCK
 62
     0
 10
2188.2732729396071
 20
564.40190871573407
 30
0.0
 11
2182.9142891396082
 21
544.40190871573395
 31
0.0
  0
LINE
  5
C02
  8
STR
  6
BYBLOCK
 62
     0
 10
2182.9142891396082
 20
544.40190871573395
 30
0.0
 11
2177.5553053396079
 21
564.40190871573407
 31
0.0
  0
LINE
  5
C03
  8
STR
  6
BYBLOCK
 62
     0
 10
2182.9142891396082
 20
544.40190871573395
 30
0.0
 11
2182.9142891396082
 21
564.40190871573407
 31
0.0
  0
TEXT
  5
C04
  8
STR
 62
     0
 10
2244.3165518668429
 20
841.40190871573384
 30
0.0
 40
30.0
  1
674
 50
90.0
  0
LINE
  5
C05
  8
STR
  6
BYBLOCK
 62
     0
 10
2248.9575680668431
 20
1198.401908715734
 30
0.0
 11
2254.3165518668429
 21
1218.401908715734
 31
0.0
  0
LINE
  5
C06
  8
STR
  6
BYBLOCK
 62
     0
 10
2254.3165518668429
 20
1218.401908715734
 30
0.0
 11
2259.6755356668432
 21
1198.401908715734
 31
0.0
  0
LINE
  5
C07
  8
STR
  6
BYBLOCK
 62
     0
 10
2254.3165518668429
 20
1218.401908715734
 30
0.0
 11
2254.3165518668429
 21
1198.401908715734
 31
0.0
  0
LINE
  5
C08
  8
STR
  6
BYBLOCK
 62
     0
 10
2259.6755356668432
 20
564.40190871573407
 30
0.0
 11
2254.3165518668429
 21
544.40190871573395
 31
0.0
  0
LINE
  5
C09
  8
STR
  6
BYBLOCK
 62
     0
 10
2254.3165518668429
 20
544.40190871573395
 30
0.0
 11
2248.9575680668431
 21
564.40190871573407
 31
0.0
  0
LINE
  5
C0A
  8
STR
  6
BYBLOCK
 62
     0
 10
2254.3165518668429
 20
544.40190871573395
 30
0.0
 11
2254.3165518668429
 21
564.40190871573407
 31
0.0
  0
TEXT
  5
C0B
  8
STR
 62
     0
 10
1347.128185604794
 20
573.40190871573452
 30
0.0
 40
30.0
  1
128
 50
90.0
  0
LINE
  5
C0C
  8
STR
  6
BYBLOCK
 62
     0
 10
1351.7692018047951
 20
652.40190871573395
 30
0.0
 11
1357.128185604794
 21
672.40190871573407
 31
0.0
  0
LINE
  5
C0D
  8
STR
  6
BYBLOCK
 62
     0
 10
1357.128185604794
 20
672.40190871573407
 30
0.0
 11
1362.4871694047949
 21
652.40190871573395
 31
0.0
  0
LINE
  5
C0E
  8
STR
  6
BYBLOCK
 62
     0
 10
1357.128185604794
 20
672.40190871573407
 30
0.0
 11
1357.128185604794
 21
652.40190871573395
 31
0.0
  0
LINE
  5
C0F
  8
STR
  6
BYBLOCK
 62
     0
 10
1362.4871694047949
 20
564.40190871573441
 30
0.0
 11
1357.128185604794
 21
544.40190871573441
 31
0.0
  0
LINE
  5
C10
  8
STR
  6
BYBLOCK
 62
     0
 10
1357.128185604794
 20
544.40190871573441
 30
0.0
 11
1351.7692018047951
 21
564.40190871573441
 31
0.0
  0
LINE
  5
C11
  8
STR
  6
BYBLOCK
 62
     0
 10
1357.128185604794
 20
544.40190871573441
 30
0.0
 11
1357.128185604794
 21
564.40190871573441
 31
0.0
  0
TEXT
  5
C12
  8
STR
 62
     0
 10
2955.5088344332748
 20
415.04355146076608
 30
0.0
 40
30.0
  1
400
  0
LINE
  5
C13
  8
STR
  6
BYBLOCK
 62
     0
 10
3170.5088344332762
 20
410.402535260766
 30
0.0
 11
3190.5088344332762
 21
405.04355146076603
 31
0.0
  0
LINE
  5
C14
  8
STR
  6
BYBLOCK
 62
     0
 10
3190.5088344332762
 20
405.04355146076603
 30
0.0
 11
3170.5088344332762
 21
399.68456766076611
 31
0.0
  0
LINE
  5
C15
  8
STR
  6
BYBLOCK
 62
     0
 10
3190.5088344332762
 20
405.04355146076603
 30
0.0
 11
3170.5088344332762
 21
405.04355146076603
 31
0.0
  0
LINE
  5
C16
  8
STR
  6
BYBLOCK
 62
     0
 10
2810.5088344332748
 20
399.68456766076611
 30
0.0
 11
2790.5088344332748
 21
405.04355146076603
 31
0.0
  0
LINE
  5
C17
  8
STR
  6
BYBLOCK
 62
     0
 10
2790.5088344332748
 20
405.04355146076603
 30
0.0
 11
2810.5088344332748
 21
410.402535260766
 31
0.0
  0
LINE
  5
C18
  8
STR
  6
BYBLOCK
 62
     0
 10
2790.5088344332748
 20
405.04355146076603
 30
0.0
 11
2810.5088344332748
 21
405.04355146076603
 31
0.0
  0
TEXT
  5
C19
  8
STR
 62
     0
 10
2953.0088344332748
 20
1380.5424863419869
 30
0.0
 40
30.0
  1
330
  0
LINE
  5
C1A
  8
STR
  6
BYBLOCK
 62
     0
 10
3135.5088344332762
 20
1375.901470141986
 30
0.0
 11
3155.5088344332762
 21
1370.542486341986
 31
0.0
  0
LINE
  5
C1B
  8
STR
  6
BYBLOCK
 62
     0
 10
3155.5088344332762
 20
1370.542486341986
 30
0.0
 11
3135.5088344332762
 21
1365.1835025419859
 31
0.0
  0
LINE
  5
C1C
  8
STR
  6
BYBLOCK
 62
     0
 10
3155.5088344332762
 20
1370.542486341986
 30
0.0
 11
3135.5088344332762
 21
1370.542486341986
 31
0.0
  0
LINE
  5
C1D
  8
STR
  6
BYBLOCK
 62
     0
 10
2845.5088344332748
 20
1365.1835025419859
 30
0.0
 11
2825.5088344332748
 21
1370.542486341986
 31
0.0
  0
LINE
  5
C1E
  8
STR
  6
BYBLOCK
 62
     0
 10
2825.5088344332748
 20
1370.542486341986
 30
0.0
 11
2845.5088344332748
 21
1375.901470141986
 31
0.0
  0
LINE
  5
C1F
  8
STR
  6
BYBLOCK
 62
     0
 10
2825.5088344332748
 20
1370.542486341986
 30
0.0
 11
2845.5088344332748
 21
1370.542486341986
 31
0.0
  0
TEXT
  5
C20
  8
STR
 62
     0
 10
1063.6281856047931
 20
409.22830829584649
 30
0.0
 40
30.0
  1
1066 (866)
  0
LINE
  5
C21
  8
STR
  6
BYBLOCK
 62
     0
 10
1698.128185604792
 20
404.58729209584641
 30
0.0
 11
1718.128185604792
 21
399.22830829584649
 31
0.0
  0
LINE
  5
C22
  8
STR
  6
BYBLOCK
 62
     0
 10
1718.128185604792
 20
399.22830829584649
 30
0.0
 11
1698.128185604792
 21
393.86932449584651
 31
0.0
  0
LINE
  5
C23
  8
STR
  6
BYBLOCK
 62
     0
 10
1718.128185604792
 20
399.22830829584649
 30
0.0
 11
1698.128185604792
 21
399.22830829584649
 31
0.0
  0
LINE
  5
C24
  8
STR
  6
BYBLOCK
 62
     0
 10
672.12818560479479
 20
393.86932449584651
 30
0.0
 11
652.12818560479479
 21
399.22830829584649
 31
0.0
  0
LINE
  5
C25
  8
STR
  6
BYBLOCK
 62
     0
 10
652.12818560479479
 20
399.22830829584649
 30
0.0
 11
672.12818560479479
 21
404.58729209584641
 31
0.0
  0
LINE
  5
C26
  8
STR
  6
BYBLOCK
 62
     0
 10
652.12818560479479
 20
399.22830829584649
 30
0.0
 11
672.12818560479479
 21
399.22830829584649
 31
0.0
  0
TEXT
  5
C27
  8
STR
 62
     0
 10
1285.1281856047949
 20
336.56220573779137
 30
0.0
 40
30.0
  1
1366
  0
LINE
  5
C28
  8
STR
  6
BYBLOCK
 62
     0
 10
1998.128185604794
 20
331.92118953779141
 30
0.0
 11
2018.1281856047949
 21
326.56220573779137
 31
0.0
  0
LINE
  5
C29
  8
STR
  6
BYBLOCK
 62
     0
 10
2018.1281856047949
 20
326.56220573779137
 30
0.0
 11
1998.128185604794
 21
321.2032219377914
 31
0.0
  0
LINE
  5
C2A
  8
STR
  6
BYBLOCK
 62
     0
 10
2018.1281856047949
 20
326.56220573779137
 30
0.0
 11
1998.128185604794
 21
326.56220573779137
 31
0.0
  0
LINE
  5
C2B
  8
STR
  6
BYBLOCK
 62
     0
 10
672.12818560479479
 20
321.2032219377914
 30
0.0
 11
652.12818560479479
 21
326.56220573779137
 31
0.0
  0
LINE
  5
C2C
  8
STR
  6
BYBLOCK
 62
     0
 10
652.12818560479479
 20
326.56220573779137
 30
0.0
 11
672.12818560479479
 21
331.92118953779141
 31
0.0
  0
LINE
  5
C2D
  8
STR
  6
BYBLOCK
 62
     0
 10
652.12818560479479
 20
326.56220573779137
 30
0.0
 11
672.12818560479479
 21
326.56220573779137
 31
0.0
  0
TEXT
  5
C2E
  8
STR
 62
     0
 10
1186.0317219679091
 20
582.40190871573441
 30
0.0
 40
30.0
  1
16
 50
90.0
  0
LINE
  5
C2F
  8
STR
  6
BYBLOCK
 62
     0
 10
1190.6727381679091
 20
652.40190871573395
 30
0.0
 11
1196.0317219679091
 21
672.40190871573407
 31
0.0
  0
LINE
  5
C30
  8
STR
  6
BYBLOCK
 62
     0
 10
1196.0317219679091
 20
672.40190871573407
 30
0.0
 11
1201.3907057679089
 21
652.40190871573395
 31
0.0
  0
LINE
  5
C31
  8
STR
  6
BYBLOCK
 62
     0
 10
1196.0317219679091
 20
672.40190871573407
 30
0.0
 11
1196.0317219679091
 21
652.40190871573395
 31
0.0
  0
LINE
  5
C32
  8
STR
  6
BYBLOCK
 62
     0
 10
1201.3907057679089
 20
708.40190871573395
 30
0.0
 11
1196.0317219679091
 21
688.40190871573407
 31
0.0
  0
LINE
  5
C33
  8
STR
  6
BYBLOCK
 62
     0
 10
1196.0317219679091
 20
688.40190871573407
 30
0.0
 11
1190.6727381679091
 21
708.40190871573395
 31
0.0
  0
LINE
  5
C34
  8
STR
  6
BYBLOCK
 62
     0
 10
1196.0317219679091
 20
688.40190871573407
 30
0.0
 11
1196.0317219679091
 21
708.40190871573395
 31
0.0
  0
ENDSEC
  0
EOF
