  0
SECTION
  2
HEADER
  9
$ACADVER
  1
AC1014
  9
$ACADMAINTVER
 70
     9
  9
$DWGCODEPAGE
  3
ANSI_932
  9
$INSBASE
 10
0.0
 20
0.0
 30
0.0
  9
$EXTMIN
 10
1037.527653160228
 20
372.6949968303833
 30
0.0
  9
$EXTMAX
 10
4155.246658160392
 20
8636.271462310441
 30
0.0
  9
$LIMMIN
 10
0.0
 20
0.0
  9
$LIMMAX
 10
5000.0
 20
9000.0
  9
$ORTHOMODE
 70
     0
  9
$REGENMODE
 70
     1
  9
$FILLMODE
 70
     1
  9
$QTEXTMODE
 70
     0
  9
$MIRRTEXT
 70
     0
  9
$DRAGMODE
 70
     2
  9
$LTSCALE
 40
1.0
  9
$OSMODE
 70
    47
  9
$ATTMODE
 70
     1
  9
$TEXTSIZE
 40
536.997578053626
  9
$TRACEWID
 40
1.0
  9
$TEXTSTYLE
  7
STANDARD
  9
$CLAYER
  8
STR
  9
$CELTYPE
  6
BYLAYER
  9
$CECOLOR
 62
   256
  9
$CELTSCALE
 40
1.0
  9
$DELOBJ
 70
     1
  9
$DISPSILH
 70
     0
  9
$DIMSCALE
 40
1.0
  9
$DIMASZ
 40
50.0
  9
$DIMEXO
 40
0.625
  9
$DIMDLI
 40
3.75
  9
$DIMRND
 40
0.0
  9
$DIMDLE
 40
0.0
  9
$DIMEXE
 40
1.25
  9
$DIMTP
 40
0.0
  9
$DIMTM
 40
0.0
  9
$DIMTXT
 40
60.0
  9
$DIMCEN
 40
2.5
  9
$DIMTSZ
 40
0.0
  9
$DIMTOL
 70
     0
  9
$DIMLIM
 70
     0
  9
$DIMTIH
 70
     0
  9
$DIMTOH
 70
     0
  9
$DIMSE1
 70
     0
  9
$DIMSE2
 70
     0
  9
$DIMTAD
 70
     1
  9
$DIMZIN
 70
     8
  9
$DIMBLK
  1
OPEN30
  9
$DIMASO
 70
     1
  9
$DIMSHO
 70
     1
  9
$DIMPOST
  1

  9
$DIMAPOST
  1

  9
$DIMALT
 70
     0
  9
$DIMALTD
 70
     3
  9
$DIMALTF
 40
0.03937007874016
  9
$DIMLFAC
 40
1.0
  9
$DIMTOFL
 70
     1
  9
$DIMTVP
 40
0.0
  9
$DIMTIX
 70
     0
  9
$DIMSOXD
 70
     0
  9
$DIMSAH
 70
     0
  9
$DIMBLK1
  1

  9
$DIMBLK2
  1

  9
$DIMSTYLE
  2
ISO-25-BRGK
  9
$DIMCLRD
 70
     0
  9
$DIMCLRE
 70
     0
  9
$DIMCLRT
 70
     0
  9
$DIMTFAC
 40
1.0
  9
$DIMGAP
 40
30.0
  9
$DIMJUST
 70
     0
  9
$DIMSD1
 70
     0
  9
$DIMSD2
 70
     0
  9
$DIMTOLJ
 70
     0
  9
$DIMTZIN
 70
     8
  9
$DIMALTZ
 70
     0
  9
$DIMALTTZ
 70
     0
  9
$DIMFIT
 70
     2
  9
$DIMUPT
 70
     0
  9
$DIMUNIT
 70
     2
  9
$DIMDEC
 70
     2
  9
$DIMTDEC
 70
     2
  9
$DIMALTU
 70
     2
  9
$DIMALTTD
 70
     3
  9
$DIMTXSTY
  7
STANDARD
  9
$DIMAUNIT
 70
     0
  9
$LUNITS
 70
     2
  9
$LUPREC
 70
     4
  9
$SKETCHINC
 40
1.0
  9
$FILLETRAD
 40
0.0
  9
$AUNITS
 70
     0
  9
$AUPREC
 70
     0
  9
$MENU
  1
.
  9
$ELEVATION
 40
0.0
  9
$PELEVATION
 40
0.0
  9
$THICKNESS
 40
0.0
  9
$LIMCHECK
 70
     0
  9
$BLIPMODE
 70
     0
  9
$CHAMFERA
 40
0.0
  9
$CHAMFERB
 40
0.0
  9
$CHAMFERC
 40
0.0
  9
$CHAMFERD
 40
0.0
  9
$SKPOLY
 70
     0
  9
$TDCREATE
 40
2453468.462395104
  9
$TDUPDATE
 40
2453476.592676504
  9
$TDINDWG
 40
0.4979676620
  9
$TDUSRTIMER
 40
0.4979674769
  9
$USRTIMER
 70
     1
  9
$ANGBASE
 50
0.0
  9
$ANGDIR
 70
     0
  9
$PDMODE
 70
     0
  9
$PDSIZE
 40
0.0
  9
$PLINEWID
 40
0.0
  9
$COORDS
 70
     1
  9
$SPLFRAME
 70
     0
  9
$SPLINETYPE
 70
     6
  9
$SPLINESEGS
 70
     8
  9
$ATTDIA
 70
     0
  9
$ATTREQ
 70
     1
  9
$HANDLING
 70
 22529
  9
$HANDSEED
  5
1786
  9
$SURFTAB1
 70
     6
  9
$SURFTAB2
 70
     6
  9
$SURFTYPE
 70
     6
  9
$SURFU
 70
     6
  9
$SURFV
 70
     6
  9
$UCSNAME
  2

  9
$UCSORG
 10
0.0
 20
0.0
 30
0.0
  9
$UCSXDIR
 10
1.0
 20
0.0
 30
0.0
  9
$UCSYDIR
 10
0.0
 20
1.0
 30
0.0
  9
$PUCSNAME
  2

  9
$PUCSORG
 10
0.0
 20
0.0
 30
0.0
  9
$PUCSXDIR
 10
1.0
 20
0.0
 30
0.0
  9
$PUCSYDIR
 10
0.0
 20
1.0
 30
0.0
  9
$USERI1
 70
     0
  9
$USERI2
 70
     0
  9
$USERI3
 70
     0
  9
$USERI4
 70
     0
  9
$USERI5
 70
     0
  9
$USERR1
 40
0.0
  9
$USERR2
 40
0.0
  9
$USERR3
 40
0.0
  9
$USERR4
 40
0.0
  9
$USERR5
 40
0.0
  9
$WORLDVIEW
 70
     1
  9
$SHADEDGE
 70
     3
  9
$SHADEDIF
 70
    70
  9
$TILEMODE
 70
     1
  9
$MAXACTVP
 70
    48
  9
$PINSBASE
 10
0.0
 20
0.0
 30
0.0
  9
$PLIMCHECK
 70
     0
  9
$PEXTMIN
 10
-5.751999572771126
 20
-3.727419923845104
 30
-0.0015258207003583
  9
$PEXTMAX
 10
203.4651985262896
 20
288.3651411776075
 30
0.0000000349246037
  9
$PLIMMIN
 10
-5.873749732971191
 20
-5.916075706481933
  9
$PLIMMAX
 10
204.0995779037475
 20
291.0522470474243
  9
$UNITMODE
 70
     0
  9
$VISRETAIN
 70
     1
  9
$PLINEGEN
 70
     0
  9
$PSLTSCALE
 70
     1
  9
$TREEDEPTH
 70
  3020
  9
$PICKSTYLE
 70
     1
  9
$CMLSTYLE
  2
STANDARD
  9
$CMLJUST
 70
     0
  9
$CMLSCALE
 40
20.0
  9
$PROXYGRAPHICS
 70
     1
  9
$MEASUREMENT
 70
     1
  0
ENDSEC
  0
SECTION
  2
CLASSES
  0
CLASS
  1
ACDBDICTIONARYWDFLT
  2
AcDbDictionaryWithDefault
  3
AutoCAD 2000
 90
        0
280
     0
281
     0
  0
CLASS
  1
ACDBPLACEHOLDER
  2
AcDbPlaceHolder
  3
AutoCAD 2000
 90
        0
280
     0
281
     0
  0
CLASS
  1
LAYOUT
  2
AcDbLayout
  3
AutoCAD 2000
 90
        0
280
     0
281
     0
  0
CLASS
  1
DICTIONARYVAR
  2
AcDbDictionaryVar
  3
AutoCAD 2000
 90
        0
280
     0
281
     0
  0
CLASS
  1
DIMASSOC
  2
AcDbDimAssoc
  3
"AcDbDimAssoc|Product Desc:     AcDim ARX App For Dimension|Company:          Autodesk, Inc.|WEB Address:      www.autodesk.com"
 90
        0
280
     0
281
     0
  0
CLASS
  1
SORTENTSTABLE
  2
AcDbSortentsTable
  3
AutoCAD 2000
 90
        0
280
     0
281
     0
  0
CLASS
  1
LONG_TRANSACTION
  2
AcDbLongTransaction
  3
AutoCAD 2000
 90
        0
280
     0
281
     0
  0
CLASS
  1
LWPOLYLINE
  2
AcDbPolyline
  3
AutoCAD 2000
 90
        0
280
     0
281
     1
  0
CLASS
  1
HATCH
  2
AcDbHatch
  3
AutoCAD 2000
 90
        0
280
     0
281
     1
  0
CLASS
  1
XRECORD
  2
AcDbXrecord
  3
AutoCAD 2000
 90
        0
280
     0
281
     0
  0
CLASS
  1
LONG_TRANSACTION
  2
AcDbLongTransaction
  3
AutoCAD 2000
 90
        0
280
     0
281
     0
  0
CLASS
  1
LWPOLYLINE
  2
AcDbPolyline
  3
AutoCAD 2000
 90
        0
280
     0
281
     1
  0
CLASS
  1
HATCH
  2
AcDbHatch
  3
AutoCAD 2000
 90
        0
280
     0
281
     1
  0
CLASS
  1
XRECORD
  2
AcDbXrecord
  3
AutoCAD 2000
 90
        0
280
     0
281
     0
  0
ENDSEC
  0
SECTION
  2
TABLES
  0
TABLE
  2
VPORT
  5
8
330
0
100
AcDbSymbolTable
 70
     2
  0
VPORT
  5
1762
330
8
100
AcDbSymbolTableRecord
100
AcDbViewportTableRecord
  2
*ACTIVE
 70
     0
 10
0.0
 20
0.0
 11
1.0
 21
1.0
 12
2499.999999999999
 22
4505.942230019173
 13
0.0
 23
0.0
 14
10.0
 24
10.0
 15
10.0
 25
10.0
 16
0.0
 26
0.0
 36
1.0
 17
0.0
 27
0.0
 37
0.0
 40
9072.077430377662
 41
1.580912863070539
 42
50.0
 43
0.0
 44
0.0
 50
0.0
 51
0.0
 71
     0
 72
  1000
 73
     1
 74
     3
 75
     0
 76
     0
 77
     0
 78
     0
  0
ENDTAB
  0
TABLE
  2
LTYPE
  5
5
330
0
100
AcDbSymbolTable
 70
     2
  0
LTYPE
  5
14
330
5
100
AcDbSymbolTableRecord
100
AcDbLinetypeTableRecord
  2
BYBLOCK
 70
     0
  3

 72
    65
 73
     0
 40
0.0
  0
LTYPE
  5
15
330
5
100
AcDbSymbolTableRecord
100
AcDbLinetypeTableRecord
  2
BYLAYER
 70
     0
  3

 72
    65
 73
     0
 40
0.0
  0
LTYPE
  5
16
330
5
100
AcDbSymbolTableRecord
100
AcDbLinetypeTableRecord
  2
CONTINUOUS
 70
     0
  3
Solid line
 72
    65
 73
     0
 40
0.0
  0
LTYPE
  5
8D
330
5
100
AcDbSymbolTableRecord
100
AcDbLinetypeTableRecord
  2
CENTER
 70
     0
  3
Center ____ _ ____ _ ____ _ ____ _ ____ _ ____
 72
    65
 73
     4
 40
50.8
 49
31.75
 74
     0
 49
-6.349999999999999
 74
     0
 49
6.349999999999999
 74
     0
 49
-6.349999999999999
 74
     0
  0
ENDTAB
  0
TABLE
  2
LAYER
  5
2
330
0
100
AcDbSymbolTable
 70
     4
  0
LAYER
  5
10
330
2
100
AcDbSymbolTableRecord
100
AcDbLayerTableRecord
  2
0
 70
     0
 62
     7
  6
CONTINUOUS
  0
LAYER
  5
8A
330
2
100
AcDbSymbolTableRecord
100
AcDbLayerTableRecord
  2
BMK
 70
     0
 62
     1
  6
CENTER
  0
LAYER
  5
8E
330
2
100
AcDbSymbolTableRecord
100
AcDbLayerTableRecord
  2
DEFPOINTS
 70
     0
 62
     7
  6
CONTINUOUS
  0
LAYER
  5
8F
330
2
100
AcDbSymbolTableRecord
100
AcDbLayerTableRecord
  2
STR
 70
     0
 62
     7
  6
CONTINUOUS
  0
ENDTAB
  0
TABLE
  2
STYLE
  5
3
330
0
100
AcDbSymbolTable
 70
     1
  0
STYLE
  5
11
330
3
100
AcDbSymbolTableRecord
100
AcDbTextStyleTableRecord
  2
STANDARD
 70
     0
 40
0.0
 41
1.0
 50
0.0
 71
     0
 42
536.997578053626
  3
txt.shx
  4
bigfont.shx
  0
ENDTAB
  0
TABLE
  2
VIEW
  5
6
330
0
100
AcDbSymbolTable
 70
     0
  0
ENDTAB
  0
TABLE
  2
UCS
  5
7
330
0
100
AcDbSymbolTable
 70
     0
  0
ENDTAB
  0
TABLE
  2
APPID
  5
9
330
0
100
AcDbSymbolTable
 70
     1
  0
APPID
  5
12
330
9
100
AcDbSymbolTableRecord
100
AcDbRegAppTableRecord
  2
ACAD
 70
     0
  0
ENDTAB
  0
TABLE
  2
DIMSTYLE
  5
A
330
0
100
AcDbSymbolTable
 70
     1
  0
DIMSTYLE
105
103
330
A
100
AcDbSymbolTableRecord
100
AcDbDimStyleTableRecord
  2
ISO-25-BRGK
 70
     0
  3

  4

  5
OPEN30
  6

  7

 40
1.0
 41
50.0
 42
0.625
 43
3.75
 44
1.25
 45
0.0
 46
0.0
 47
0.0
 48
0.0
140
60.0
141
2.5
142
0.0
143
0.03937007874016
144
1.0
145
0.0
146
1.0
147
30.0
 71
     0
 72
     0
 73
     0
 74
     0
 75
     0
 76
     0
 77
     1
 78
     8
170
     0
171
     3
172
     1
173
     0
174
     0
175
     0
176
     0
177
     0
178
     0
270
     2
271
     2
272
     2
273
     2
274
     3
340
11
275
     0
280
     0
281
     0
282
     0
283
     0
284
     8
285
     0
286
     0
287
     2
288
     0
  0
ENDTAB
  0
TABLE
  2
BLOCK_RECORD
  5
1
330
0
100
AcDbSymbolTable
 70
     8
  0
BLOCK_RECORD
  5
1F
102
{ACAD_XDICTIONARY
360
16C4
102
}
330
1
100
AcDbSymbolTableRecord
100
AcDbBlockTableRecord
  2
*MODEL_SPACE
  0
BLOCK_RECORD
  5
1663
102
{ACAD_XDICTIONARY
360
16C6
102
}
330
1
100
AcDbSymbolTableRecord
100
AcDbBlockTableRecord
  2
*PAPER_SPACE
  0
BLOCK_RECORD
  5
FA
330
1
100
AcDbSymbolTableRecord
100
AcDbBlockTableRecord
  2
_OPEN30
  0
BLOCK_RECORD
  5
100
330
1
100
AcDbSymbolTableRecord
100
AcDbBlockTableRecord
  2
_NONE
  0
BLOCK_RECORD
  5
11BF
330
1
100
AcDbSymbolTableRecord
100
AcDbBlockTableRecord
  2
*D2
  0
BLOCK_RECORD
  5
1205
330
1
100
AcDbSymbolTableRecord
100
AcDbBlockTableRecord
  2
*D3
  0
BLOCK_RECORD
  5
124E
330
1
100
AcDbSymbolTableRecord
100
AcDbBlockTableRecord
  2
*D4
  0
BLOCK_RECORD
  5
1280
330
1
100
AcDbSymbolTableRecord
100
AcDbBlockTableRecord
  2
*D5
  0
BLOCK_RECORD
  5
12D6
330
1
100
AcDbSymbolTableRecord
100
AcDbBlockTableRecord
  2
*D6
  0
BLOCK_RECORD
  5
1342
330
1
100
AcDbSymbolTableRecord
100
AcDbBlockTableRecord
  2
*D7
  0
ENDTAB
  0
ENDSEC
  0
SECTION
  2
BLOCKS
  0
BLOCK
  5
20
330
1F
100
AcDbEntity
  8
0
100
AcDbBlockBegin
  2
*MODEL_SPACE
 70
     0
 10
0.0
 20
0.0
 30
0.0
  3
*MODEL_SPACE
  1

  0
ENDBLK
  5
21
330
1F
100
AcDbEntity
  8
0
100
AcDbBlockEnd
  0
BLOCK
  5
1665
330
1663
100
AcDbEntity
 67
     1
  8
0
100
AcDbBlockBegin
  2
*PAPER_SPACE
 70
     0
 10
0.0
 20
0.0
 30
0.0
  3
*PAPER_SPACE
  1

  0
ENDBLK
  5
1666
330
1663
100
AcDbEntity
 67
     1
  8
0
100
AcDbBlockEnd
  0
BLOCK
  5
FB
330
FA
100
AcDbEntity
  8
0
100
AcDbBlockBegin
  2
_OPEN30
 70
     0
 10
0.0
 20
0.0
 30
0.0
  3
_OPEN30
  1

  0
LINE
  5
FC
330
FA
100
AcDbEntity
  8
0
  6
BYBLOCK
 62
     0
100
AcDbLine
 10
-1.0
 20
0.26794919
 30
0.0
 11
0.0
 21
0.0
 31
0.0
  0
LINE
  5
FD
330
FA
100
AcDbEntity
  8
0
  6
BYBLOCK
 62
     0
100
AcDbLine
 10
0.0
 20
0.0
 30
0.0
 11
-1.0
 21
-0.26794919
 31
0.0
  0
LINE
  5
FE
330
FA
100
AcDbEntity
  8
0
  6
BYBLOCK
 62
     0
100
AcDbLine
 10
0.0
 20
0.0
 30
0.0
 11
-1.0
 21
0.0
 31
0.0
  0
ENDBLK
  5
FF
330
FA
100
AcDbEntity
  8
0
100
AcDbBlockEnd
  0
BLOCK
  5
101
330
100
100
AcDbEntity
  8
0
100
AcDbBlockBegin
  2
_NONE
 70
     0
 10
0.0
 20
0.0
 30
0.0
  3
_NONE
  1

  0
ENDBLK
  5
102
330
100
100
AcDbEntity
  8
0
100
AcDbBlockEnd
  0
BLOCK
  5
11C9
330
11BF
100
AcDbEntity
  8
0
100
AcDbBlockBegin
  2
*D2
 70
     1
 10
0.0
 20
0.0
 30
0.0
  3
*D2
  1

  0
LINE
  5
169E
330
11BF
100
AcDbEntity
  8
STR
 62
     0
100
AcDbLine
 10
2667.411236627698
 20
3221.801857649406
 30
0.0
 11
3930.422712359817
 21
3221.801857649405
 31
0.0
  0
LINE
  5
169F
330
11BF
100
AcDbEntity
  8
STR
 62
     0
100
AcDbLine
 10
3559.213447822758
 20
721.801857649405
 30
0.0
 11
3930.422712359817
 21
721.8018576494049
 31
0.0
  0
LINE
  5
16A0
330
11BF
100
AcDbEntity
  8
STR
 62
     0
100
AcDbLine
 10
3929.172712359818
 20
3171.801857649406
 30
0.0
 11
3929.172712359816
 21
771.8018576494049
 31
0.0
  0
INSERT
  5
16A1
330
11BF
100
AcDbEntity
  8
STR
 62
     0
100
AcDbBlockReference
  2
_OPEN30
 10
3929.172712359818
 20
3221.801857649405
 30
0.0
 41
50.0
 42
50.0
 43
50.0
 50
90.0
  0
INSERT
  5
16A2
330
11BF
100
AcDbEntity
  8
STR
 62
     0
100
AcDbBlockReference
  2
_OPEN30
 10
3929.172712359816
 20
721.8018576494049
 30
0.0
 41
50.0
 42
50.0
 43
50.0
 50
270.0
  0
MTEXT
  5
16A3
330
11BF
100
AcDbEntity
  8
STR
 62
     0
100
AcDbMText
 10
3869.172712359817
 20
1971.801857649406
 30
0.0
 40
60.0
 41
0.0
 71
     5
 72
     1
  1
MAX2500
 11
0.0000000000000001
 21
1.0
 31
0.0
1001
ACAD
1000
MTEXTBEGIN
1070
    73
1070
     1
1070
    44
1040
1.0
1070
    74
1070
     0
1000
MTEXTEND
  0
POINT
  5
16A4
330
11BF
100
AcDbEntity
  8
DEFPOINTS
 62
     0
100
AcDbPoint
 10
2666.786236627698
 20
3221.801857649406
 30
0.0
  0
POINT
  5
16A5
330
11BF
100
AcDbEntity
  8
DEFPOINTS
 62
     0
100
AcDbPoint
 10
3558.588447822758
 20
721.801857649405
 30
0.0
  0
POINT
  5
16A6
330
11BF
100
AcDbEntity
  8
DEFPOINTS
 62
     0
100
AcDbPoint
 10
3929.172712359816
 20
721.8018576494049
 30
0.0
  0
ENDBLK
  5
11CA
330
11BF
100
AcDbEntity
  8
0
100
AcDbBlockEnd
  0
BLOCK
  5
1210
330
1205
100
AcDbEntity
  8
0
100
AcDbBlockBegin
  2
*D3
 70
     1
 10
0.0
 20
0.0
 30
0.0
  3
*D3
  1

  0
LINE
  5
154E
330
1205
100
AcDbEntity
  8
STR
 62
     0
100
AcDbLine
 10
3559.213447822758
 20
721.801857649405
 30
0.0
 11
3774.948810950098
 21
721.801857649405
 31
0.0
  0
LINE
  5
154F
330
1205
100
AcDbEntity
  8
STR
 62
     0
100
AcDbLine
 10
3559.213447822758
 20
921.8018576494051
 30
0.0
 11
3774.948810950098
 21
921.8018576494051
 31
0.0
  0
LINE
  5
1550
330
1205
100
AcDbEntity
  8
STR
 62
     0
100
AcDbLine
 10
3773.698810950098
 20
771.801857649405
 30
0.0
 11
3773.698810950098
 21
871.8018576494051
 31
0.0
  0
LINE
  5
1551
330
1205
100
AcDbEntity
  8
STR
 62
     0
100
AcDbLine
 10
3773.698810950098
 20
921.8018576494051
 30
0.0
 11
3773.698810950098
 21
1171.801857649405
 31
0.0
  0
INSERT
  5
1552
330
1205
100
AcDbEntity
  8
STR
 62
     0
100
AcDbBlockReference
  2
_OPEN30
 10
3773.698810950098
 20
721.801857649405
 30
0.0
 41
50.0
 42
50.0
 43
50.0
 50
270.0
  0
INSERT
  5
1553
330
1205
100
AcDbEntity
  8
STR
 62
     0
100
AcDbBlockReference
  2
_OPEN30
 10
3773.698810950098
 20
921.8018576494051
 30
0.0
 41
50.0
 42
50.0
 43
50.0
 50
90.0
  0
MTEXT
  5
1554
330
1205
100
AcDbEntity
  8
STR
 62
     0
100
AcDbMText
 10
3713.698810950098
 20
1071.801857649405
 30
0.0
 40
60.0
 41
0.0
 71
     5
 72
     1
  1
200
 11
0.0000000000000001
 21
1.0
 31
0.0
1001
ACAD
1000
MTEXTBEGIN
1070
    73
1070
     1
1070
    44
1040
1.0
1070
    74
1070
     0
1000
MTEXTEND
  0
POINT
  5
1555
330
1205
100
AcDbEntity
  8
DEFPOINTS
 62
     0
100
AcDbPoint
 10
3558.588447822758
 20
721.801857649405
 30
0.0
  0
POINT
  5
1556
330
1205
100
AcDbEntity
  8
DEFPOINTS
 62
     0
100
AcDbPoint
 10
3558.588447822758
 20
921.8018576494051
 30
0.0
  0
POINT
  5
1557
330
1205
100
AcDbEntity
  8
DEFPOINTS
 62
     0
100
AcDbPoint
 10
3773.698810950098
 20
921.8018576494051
 30
0.0
  0
ENDBLK
  5
1211
330
1205
100
AcDbEntity
  8
0
100
AcDbBlockEnd
  0
BLOCK
  5
125A
330
124E
100
AcDbEntity
  8
0
100
AcDbBlockBegin
  2
*D4
 70
     1
 10
0.0
 20
0.0
 30
0.0
  3
*D4
  1

  0
LINE
  5
1486
330
124E
100
AcDbEntity
  8
STR
 62
     0
100
AcDbLine
 10
2169.918555064028
 20
1703.847137216043
 30
0.0
 11
2169.918555064028
 21
1705.097137216043
 31
0.0
  0
LINE
  5
1487
330
124E
100
AcDbEntity
  8
STR
 62
     0
100
AcDbLine
 10
2328.918555064027
 20
1703.847137216043
 30
0.0
 11
2328.918555064027
 21
1705.097137216043
 31
0.0
  0
LINE
  5
1488
330
124E
100
AcDbEntity
  8
STR
 62
     0
100
AcDbLine
 10
2119.918555064028
 20
1703.847137216043
 30
0.0
 11
2069.918555064028
 21
1703.847137216043
 31
0.0
  0
LINE
  5
1489
330
124E
100
AcDbEntity
  8
STR
 62
     0
100
AcDbLine
 10
2378.918555064027
 20
1703.847137216043
 30
0.0
 11
2428.918555064027
 21
1703.847137216043
 31
0.0
  0
LINE
  5
148A
330
124E
100
AcDbEntity
  8
STR
 62
     0
100
AcDbLine
 10
2169.918555064028
 20
1703.847137216043
 30
0.0
 11
2328.918555064027
 21
1703.847137216043
 31
0.0
  0
INSERT
  5
148B
330
124E
100
AcDbEntity
  8
STR
 62
     0
100
AcDbBlockReference
  2
_OPEN30
 10
2169.918555064028
 20
1703.847137216043
 30
0.0
 41
50.0
 42
50.0
 43
50.0
  0
INSERT
  5
148C
330
124E
100
AcDbEntity
  8
STR
 62
     0
100
AcDbBlockReference
  2
_OPEN30
 10
2328.918555064027
 20
1703.847137216043
 30
0.0
 41
50.0
 42
50.0
 43
50.0
 50
180.0
  0
MTEXT
  5
148D
330
124E
100
AcDbEntity
  8
STR
 62
     0
100
AcDbMText
 10
2249.418555064027
 20
1763.847137216043
 30
0.0
 40
60.0
 41
0.0
 71
     5
 72
     1
  1
159
1001
ACAD
1000
MTEXTBEGIN
1070
    73
1070
     1
1070
    44
1040
1.0
1070
    74
1070
     0
1000
MTEXTEND
  0
POINT
  5
148E
330
124E
100
AcDbEntity
  8
DEFPOINTS
 62
     0
100
AcDbPoint
 10
2169.918555064028
 20
1703.222137216043
 30
0.0
  0
POINT
  5
148F
330
124E
100
AcDbEntity
  8
DEFPOINTS
 62
     0
100
AcDbPoint
 10
2328.918555064027
 20
1703.222137216043
 30
0.0
  0
POINT
  5
1490
330
124E
100
AcDbEntity
  8
DEFPOINTS
 62
     0
100
AcDbPoint
 10
2328.918555064027
 20
1703.847137216043
 30
0.0
  0
ENDBLK
  5
125B
330
124E
100
AcDbEntity
  8
0
100
AcDbBlockEnd
  0
BLOCK
  5
128A
330
1280
100
AcDbEntity
  8
0
100
AcDbBlockBegin
  2
*D5
 70
     1
 10
0.0
 20
0.0
 30
0.0
  3
*D5
  1

  0
LINE
  5
145F
330
1280
100
AcDbEntity
  8
STR
 62
     0
100
AcDbLine
 10
2328.918555064028
 20
1991.155805936686
 30
0.0
 11
2328.918555064028
 21
1991.780805936686
 31
0.0
  0
LINE
  5
1460
330
1280
100
AcDbEntity
  8
STR
 62
     0
100
AcDbLine
 10
1804.918555064028
 20
1991.155805936686
 30
0.0
 11
1804.918555064028
 21
1991.780805936686
 31
0.0
  0
LINE
  5
1461
330
1280
100
AcDbEntity
  8
STR
 62
     0
100
AcDbLine
 10
2278.918555064028
 20
1990.530805936686
 30
0.0
 11
1854.918555064028
 21
1990.530805936686
 31
0.0
  0
INSERT
  5
1462
330
1280
100
AcDbEntity
  8
STR
 62
     0
100
AcDbBlockReference
  2
_OPEN30
 10
2328.918555064028
 20
1990.530805936686
 30
0.0
 41
50.0
 42
50.0
 43
50.0
  0
INSERT
  5
1463
330
1280
100
AcDbEntity
  8
STR
 62
     0
100
AcDbBlockReference
  2
_OPEN30
 10
1804.918555064028
 20
1990.530805936686
 30
0.0
 41
50.0
 42
50.0
 43
50.0
 50
180.0
  0
MTEXT
  5
1464
330
1280
100
AcDbEntity
  8
STR
 62
     0
100
AcDbMText
 10
2066.918555064028
 20
2050.530805936686
 30
0.0
 40
60.0
 41
0.0
 71
     5
 72
     1
  1
524
1001
ACAD
1000
MTEXTBEGIN
1070
    73
1070
     1
1070
    44
1040
1.0
1070
    74
1070
     0
1000
MTEXTEND
  0
POINT
  5
1465
330
1280
100
AcDbEntity
  8
DEFPOINTS
 62
     0
100
AcDbPoint
 10
2328.918555064028
 20
1990.530805936686
 30
0.0
  0
POINT
  5
1466
330
1280
100
AcDbEntity
  8
DEFPOINTS
 62
     0
100
AcDbPoint
 10
1804.918555064028
 20
1990.530805936686
 30
0.0
  0
POINT
  5
1467
330
1280
100
AcDbEntity
  8
DEFPOINTS
 62
     0
100
AcDbPoint
 10
1804.918555064028
 20
1990.530805936686
 30
0.0
  0
ENDBLK
  5
128B
330
1280
100
AcDbEntity
  8
0
100
AcDbBlockEnd
  0
BLOCK
  5
12E0
330
12D6
100
AcDbEntity
  8
0
100
AcDbBlockBegin
  2
*D6
 70
     1
 10
0.0
 20
0.0
 30
0.0
  3
*D6
  1

  0
LINE
  5
1456
330
12D6
100
AcDbEntity
  8
STR
 62
     0
100
AcDbLine
 10
2328.918555064028
 20
3252.426857649405
 30
0.0
 11
2328.918555064028
 21
3474.67773576215
 31
0.0
  0
LINE
  5
1457
330
12D6
100
AcDbEntity
  8
STR
 62
     0
100
AcDbLine
 10
1128.918555064028
 20
3252.426857649405
 30
0.0
 11
1128.918555064028
 21
3474.67773576215
 31
0.0
  0
LINE
  5
1458
330
12D6
100
AcDbEntity
  8
STR
 62
     0
100
AcDbLine
 10
2278.918555064028
 20
3473.42773576215
 30
0.0
 11
1178.918555064028
 21
3473.42773576215
 31
0.0
  0
INSERT
  5
1459
330
12D6
100
AcDbEntity
  8
STR
 62
     0
100
AcDbBlockReference
  2
_OPEN30
 10
2328.918555064028
 20
3473.42773576215
 30
0.0
 41
50.0
 42
50.0
 43
50.0
  0
INSERT
  5
145A
330
12D6
100
AcDbEntity
  8
STR
 62
     0
100
AcDbBlockReference
  2
_OPEN30
 10
1128.918555064028
 20
3473.42773576215
 30
0.0
 41
50.0
 42
50.0
 43
50.0
 50
180.0
  0
MTEXT
  5
145B
330
12D6
100
AcDbEntity
  8
STR
 62
     0
100
AcDbMText
 10
1832.84160351816
 20
3533.42773576215
 30
0.0
 40
60.0
 41
0.0
 71
     5
 72
     1
  1
1200
1001
ACAD
1000
MTEXTBEGIN
1070
    73
1070
     1
1070
    44
1040
1.0
1070
    74
1070
     0
1000
MTEXTEND
  0
POINT
  5
145C
330
12D6
100
AcDbEntity
  8
DEFPOINTS
 62
     0
100
AcDbPoint
 10
2328.918555064028
 20
3251.801857649406
 30
0.0
  0
POINT
  5
145D
330
12D6
100
AcDbEntity
  8
DEFPOINTS
 62
     0
100
AcDbPoint
 10
1128.918555064028
 20
3251.801857649406
 30
0.0
  0
POINT
  5
145E
330
12D6
100
AcDbEntity
  8
DEFPOINTS
 62
     0
100
AcDbPoint
 10
1128.918555064028
 20
3473.42773576215
 30
0.0
  0
ENDBLK
  5
12E1
330
12D6
100
AcDbEntity
  8
0
100
AcDbBlockEnd
  0
BLOCK
  5
134C
330
1342
100
AcDbEntity
  8
0
100
AcDbBlockBegin
  2
*D7
 70
     1
 10
0.0
 20
0.0
 30
0.0
  3
*D7
  1

  0
LINE
  5
164B
330
1342
100
AcDbEntity
  8
STR
 62
     0
100
AcDbLine
 10
2104.918555064027
 20
1603.176425041257
 30
0.0
 11
2104.918555064027
 21
1603.801425041257
 31
0.0
  0
LINE
  5
164C
330
1342
100
AcDbEntity
  8
STR
 62
     0
100
AcDbLine
 10
1504.918555064027
 20
1603.176425041257
 30
0.0
 11
1504.918555064027
 21
1603.801425041257
 31
0.0
  0
LINE
  5
164D
330
1342
100
AcDbEntity
  8
STR
 62
     0
100
AcDbLine
 10
2054.918555064027
 20
1602.551425041258
 30
0.0
 11
1554.918555064027
 21
1602.551425041258
 31
0.0
  0
INSERT
  5
164E
330
1342
100
AcDbEntity
  8
STR
 62
     0
100
AcDbBlockReference
  2
_OPEN30
 10
2104.918555064027
 20
1602.551425041258
 30
0.0
 41
50.0
 42
50.0
 43
50.0
  0
INSERT
  5
164F
330
1342
100
AcDbEntity
  8
STR
 62
     0
100
AcDbBlockReference
  2
_OPEN30
 10
1504.918555064027
 20
1602.551425041258
 30
0.0
 41
50.0
 42
50.0
 43
50.0
 50
180.0
  0
POINT
  5
1650
330
1342
100
AcDbEntity
  8
DEFPOINTS
 62
     0
100
AcDbPoint
 10
2104.918555064027
 20
1602.551425041258
 30
0.0
  0
POINT
  5
1651
330
1342
100
AcDbEntity
  8
DEFPOINTS
 62
     0
100
AcDbPoint
 10
1504.918555064027
 20
1602.551425041258
 30
0.0
  0
POINT
  5
1652
330
1342
100
AcDbEntity
  8
DEFPOINTS
 62
     0
100
AcDbPoint
 10
1504.918555064027
 20
1602.551425041258
 30
0.0
  0
ENDBLK
  5
134D
330
1342
100
AcDbEntity
  8
0
100
AcDbBlockEnd
  0
ENDSEC
  0
SECTION
  2
ENTITIES
  0
TEXT
  5
4DB
330
1F
100
AcDbEntity
  8
STR
100
AcDbText
 10
1200.867634671361
 20
8328.390197474142
 30
0.0
 40
60.0
  1
3-3b 機械，削進台の寸法図（b）
100
AcDbText
  0
LINE
  5
996
330
1F
100
AcDbEntity
  8
BMK
100
AcDbLine
 10
1037.527653160228
 20
6177.89757535827
 30
0.0
 11
3585.405247112445
 21
6177.89757535827
 31
0.0
  0
LINE
  5
A1A
330
1F
100
AcDbEntity
  8
BMK
100
AcDbLine
 10
1804.918555064028
 20
6449.956398833271
 30
0.0
 11
1804.918555064028
 21
5905.838751883272
 31
0.0
  0
CIRCLE
  5
A1D
330
1F
100
AcDbEntity
  8
STR
100
AcDbCircle
 10
1804.918555064028
 20
6177.89757535827
 30
0.0
 40
125.0
  0
CIRCLE
  5
A1E
330
1F
100
AcDbEntity
  8
STR
100
AcDbCircle
 10
1804.918555064028
 20
6177.89757535827
 30
0.0
 40
70.0
  0
LINE
  5
A49
330
1F
100
AcDbEntity
  8
STR
100
AcDbLine
 10
1411.926468408541
 20
7158.995528211106
 30
0.0
 11
1552.985425032402
 21
7588.461689510356
 31
0.0
  0
LINE
  5
A4A
330
1F
100
AcDbEntity
  8
STR
100
AcDbLine
 10
1423.157465318832
 20
7164.718451411111
 30
0.0
 11
1398.159523451565
 21
7126.492641691964
 31
0.0
  0
LINE
  5
A4B
330
1F
100
AcDbEntity
  8
STR
100
AcDbLine
 10
1398.159523451565
 20
7126.492641691964
 30
0.0
 11
1400.69547149825
 21
7172.096134911106
 31
0.0
  0
LINE
  5
A4C
330
1F
100
AcDbEntity
  8
STR
100
AcDbLine
 10
1398.159523451565
 20
7126.492641691964
 30
0.0
 11
1411.926468408541
 21
7168.407293161108
 31
0.0
  0
LINE
  5
A4D
330
1F
100
AcDbEntity
  8
STR
100
AcDbLine
 10
1552.985425032402
 20
7588.461689510356
 30
0.0
 11
2228.987991118781
 21
7588.461689510355
 31
0.0
  0
TEXT
  5
A4E
330
1F
100
AcDbEntity
  8
STR
100
AcDbText
 10
1579.753110185013
 20
7613.163993876707
 30
0.0
 40
60.0
  1
アウトリガー8カ所
100
AcDbText
  0
LINE
  5
B9D
330
1F
100
AcDbEntity
  8
STR
100
AcDbLine
 10
1504.918555064028
 20
6157.950608483076
 30
0.0
 11
1677.798482083835
 21
6157.950608483077
 31
0.0
  0
LINE
  5
B9F
330
1F
100
AcDbEntity
  8
STR
100
AcDbLine
 10
1677.798482083835
 20
5979.368163633271
 30
0.0
 11
1677.798482083835
 21
6157.950608483077
 31
0.0
  0
LINE
  5
BA6
330
1F
100
AcDbEntity
  8
STR
100
AcDbLine
 10
2128.609731557779
 20
5979.368163633271
 30
0.0
 11
1504.918555064028
 21
5979.368163633271
 31
0.0
  0
LINE
  5
BAE
330
1F
100
AcDbEntity
  8
STR
100
AcDbLine
 10
2104.918555064029
 20
5979.368163633271
 30
0.0
 11
2104.918555064029
 21
6376.42698708327
 31
0.0
  0
LINE
  5
BAF
330
1F
100
AcDbEntity
  8
STR
100
AcDbLine
 10
2128.609731557779
 20
6376.42698708327
 30
0.0
 11
2128.609731557779
 21
5979.368163633271
 31
0.0
  0
LINE
  5
BB4
330
1F
100
AcDbEntity
  8
STR
100
AcDbLine
 10
1677.798482083834
 20
6376.42698708327
 30
0.0
 11
1677.798482083834
 21
6197.844542233465
 31
0.0
  0
LINE
  5
BB5
330
1F
100
AcDbEntity
  8
STR
100
AcDbLine
 10
1504.918555064027
 20
6197.844542233463
 30
0.0
 11
1677.798482083835
 21
6197.844542233465
 31
0.0
  0
LINE
  5
BB6
330
1F
100
AcDbEntity
  8
STR
100
AcDbLine
 10
2128.609731557779
 20
6376.42698708327
 30
0.0
 11
1504.918555064028
 21
6376.426987083271
 31
0.0
  0
LINE
  5
BBA
330
1F
100
AcDbEntity
  8
STR
100
AcDbLine
 10
2144.918555064028
 20
6475.69169294577
 30
0.0
 11
2328.918555064029
 21
6475.69169294577
 31
0.0
  0
LINE
  5
BBB
330
1F
100
AcDbEntity
  8
STR
100
AcDbLine
 10
2144.918555064028
 20
5880.10345777077
 30
0.0
 11
2328.918555064029
 21
5880.10345777077
 31
0.0
  0
LINE
  5
BBD
330
1F
100
AcDbEntity
  8
BMK
100
AcDbLine
 10
2294.050907995279
 20
5979.368163633271
 30
0.0
 11
2558.756790295279
 21
5979.368163633271
 31
0.0
  0
LINE
  5
BBE
330
1F
100
AcDbEntity
  8
STR
100
AcDbLine
 10
2328.918555064029
 20
6012.456398920771
 30
0.0
 11
2545.668555007778
 21
6012.456398920772
 31
0.0
  0
LINE
  5
BBF
330
1F
100
AcDbEntity
  8
STR
100
AcDbLine
 10
2328.918555064029
 20
5946.279928345773
 30
0.0
 11
2545.668555007779
 21
5946.27992834577
 31
0.0
  0
LINE
  5
BC1
330
1F
100
AcDbEntity
  8
STR
100
AcDbLine
 10
2328.918555064029
 20
5929.735810702021
 30
0.0
 11
2496.036202076529
 21
5929.735810702021
 31
0.0
  0
LINE
  5
BC2
330
1F
100
AcDbEntity
  8
STR
100
AcDbLine
 10
2328.918555064029
 20
6029.00051656452
 30
0.0
 11
2496.036202076529
 21
6029.00051656452
 31
0.0
  0
LINE
  5
BC5
330
1F
100
AcDbEntity
  8
STR
100
AcDbLine
 10
2328.918555064028
 20
6045.544634208271
 30
0.0
 11
2348.918555064027
 21
6045.544634208271
 31
0.0
  0
LINE
  5
BC7
330
1F
100
AcDbEntity
  8
STR
100
AcDbLine
 10
2328.918555064028
 20
5913.191693058271
 30
0.0
 11
2348.918555064027
 21
5913.191693058271
 31
0.0
  0
LINE
  5
BCA
330
1F
100
AcDbEntity
  8
STR
100
AcDbLine
 10
2545.668555007779
 20
5946.279928345772
 30
0.0
 11
2545.668555007778
 21
6012.456398920772
 31
0.0
  0
LINE
  5
BCB
330
1F
100
AcDbEntity
  8
STR
100
AcDbLine
 10
2496.036202076529
 20
5929.735810702021
 30
0.0
 11
2496.036202076529
 21
5946.279928345772
 31
0.0
  0
LINE
  5
BCC
330
1F
100
AcDbEntity
  8
STR
100
AcDbLine
 10
2496.036202076529
 20
6012.456398920771
 30
0.0
 11
2496.036202076529
 21
6029.00051656452
 31
0.0
  0
LINE
  5
BCF
330
1F
100
AcDbEntity
  8
STR
100
AcDbLine
 10
2496.036202076529
 20
6343.338751795771
 30
0.0
 11
2496.036202076529
 21
6326.794634152022
 31
0.0
  0
LINE
  5
BD0
330
1F
100
AcDbEntity
  8
STR
100
AcDbLine
 10
2496.036202076529
 20
6426.059340014521
 30
0.0
 11
2496.036202076529
 21
6409.515222370771
 31
0.0
  0
LINE
  5
BD1
330
1F
100
AcDbEntity
  8
STR
100
AcDbLine
 10
2545.668555007779
 20
6409.515222370771
 30
0.0
 11
2545.668555007778
 21
6343.338751795769
 31
0.0
  0
LINE
  5
BD3
330
1F
100
AcDbEntity
  8
STR
100
AcDbLine
 10
2328.918555064029
 20
6442.603457658271
 30
0.0
 11
2348.918555064027
 21
6442.603457658269
 31
0.0
  0
LINE
  5
BD4
330
1F
100
AcDbEntity
  8
STR
100
AcDbLine
 10
2328.918555064028
 20
6310.250516508271
 30
0.0
 11
2348.918555064027
 21
6310.250516508272
 31
0.0
  0
LINE
  5
BD6
330
1F
100
AcDbEntity
  8
STR
100
AcDbLine
 10
2328.918555064029
 20
6326.794634152022
 30
0.0
 11
2496.036202076529
 21
6326.794634152021
 31
0.0
  0
LINE
  5
BD7
330
1F
100
AcDbEntity
  8
STR
100
AcDbLine
 10
2328.918555064029
 20
6426.059340014521
 30
0.0
 11
2496.036202076529
 21
6426.059340014521
 31
0.0
  0
LINE
  5
BD8
330
1F
100
AcDbEntity
  8
STR
100
AcDbLine
 10
2328.918555064029
 20
6409.515222370771
 30
0.0
 11
2545.668555007779
 21
6409.515222370771
 31
0.0
  0
LINE
  5
BD9
330
1F
100
AcDbEntity
  8
STR
100
AcDbLine
 10
2328.918555064029
 20
6343.338751795771
 30
0.0
 11
2545.668555007778
 21
6343.338751795771
 31
0.0
  0
LINE
  5
BDA
330
1F
100
AcDbEntity
  8
BMK
100
AcDbLine
 10
2294.050907995279
 20
6376.426987083271
 30
0.0
 11
2558.756790295279
 21
6376.426987083271
 31
0.0
  0
LINE
  5
BDB
330
1F
100
AcDbEntity
  8
STR
100
AcDbLine
 10
2475.543555064025
 20
5780.83875190827
 30
0.0
 11
2475.543555064026
 21
5929.735810702021
 31
0.0
  0
LINE
  5
BDE
330
1F
100
AcDbEntity
  8
STR
100
AcDbLine
 10
2028.627801834028
 20
5847.015222483271
 30
0.0
 11
2475.543555064025
 21
5847.015222483271
 31
0.0
  0
LINE
  5
BDF
330
1F
100
AcDbEntity
  8
STR
100
AcDbLine
 10
2475.543555064028
 20
6574.956398808272
 30
0.0
 11
2595.543555064027
 21
6574.95639880827
 31
0.0
  0
LINE
  5
BE0
330
1F
100
AcDbEntity
  8
STR
100
AcDbLine
 10
2475.543555064025
 20
5780.83875190827
 30
0.0
 11
2595.543555064026
 21
5780.83875190827
 31
0.0
  0
LINE
  5
BE2
330
1F
100
AcDbEntity
  8
STR
100
AcDbLine
 10
2328.918555064029
 20
6475.691692945772
 30
0.0
 11
2328.918555064029
 21
5880.10345777077
 31
0.0
  0
LINE
  5
BE3
330
1F
100
AcDbEntity
  8
STR
100
AcDbLine
 10
2595.543555064026
 20
5780.838751908271
 30
0.0
 11
2595.543555064027
 21
6574.956398808271
 31
0.0
  0
LINE
  5
BE5
330
1F
100
AcDbEntity
  8
STR
100
AcDbLine
 10
2939.271496101528
 20
5880.10345777077
 30
0.0
 11
2939.27149610153
 21
6475.691692945772
 31
0.0
  0
LINE
  5
BE6
330
1F
100
AcDbEntity
  8
STR
100
AcDbLine
 10
2595.543555064027
 20
6475.691692945772
 30
0.0
 11
2939.27149610153
 21
6475.691692945772
 31
0.0
  0
LINE
  5
BE7
330
1F
100
AcDbEntity
  8
STR
100
AcDbLine
 10
2595.543555064026
 20
5880.10345777077
 30
0.0
 11
2939.27149610153
 21
5880.10345777077
 31
0.0
  0
LINE
  5
BE8
330
1F
100
AcDbEntity
  8
BMK
100
AcDbLine
 10
2634.793555064028
 20
7501.42698685827
 30
0.0
 11
2634.793555064028
 21
4854.368163858271
 31
0.0
  0
LINE
  5
BE9
330
1F
100
AcDbEntity
  8
STR
100
AcDbLine
 10
2028.627801834029
 20
5503.324230549632
 30
0.0
 11
2028.627801834028
 21
5847.015222483271
 31
0.0
  0
LINE
  5
C35
330
1F
100
AcDbEntity
  8
STR
100
AcDbLine
 10
2227.782213559027
 20
6867.176802516908
 30
0.0
 11
2227.782213559027
 21
7014.235626016909
 31
0.0
  0
LINE
  5
C36
330
1F
100
AcDbEntity
  8
STR
100
AcDbLine
 10
1196.601094746686
 20
6867.176802516908
 30
0.0
 11
2066.017507709027
 21
6867.176802516908
 31
0.0
  0
LINE
  5
C37
330
1F
100
AcDbEntity
  8
STR
100
AcDbLine
 10
1196.601094746686
 20
7014.235626016908
 30
0.0
 11
2066.017507709027
 21
7014.235626016909
 31
0.0
  0
LINE
  5
C39
330
1F
100
AcDbEntity
  8
STR
100
AcDbLine
 10
1196.601094746687
 20
6867.176802516908
 30
0.0
 11
1196.601094746687
 21
7014.235626016908
 31
0.0
  0
LINE
  5
C3C
330
1F
100
AcDbEntity
  8
STR
100
AcDbLine
 10
3527.010778669029
 20
7014.235626016908
 30
0.0
 11
3056.422543469029
 21
7014.235626016908
 31
0.0
  0
LINE
  5
C3D
330
1F
100
AcDbEntity
  8
STR
100
AcDbLine
 10
3527.010778669029
 20
6867.176802516907
 30
0.0
 11
3056.422543469029
 21
6867.176802516907
 31
0.0
  0
LINE
  5
C40
330
1F
100
AcDbEntity
  8
STR
100
AcDbLine
 10
3527.010778669029
 20
6867.176802516907
 30
0.0
 11
3527.010778669029
 21
7014.235626016908
 31
0.0
  0
LINE
  5
C42
330
1F
100
AcDbEntity
  8
STR
100
AcDbLine
 10
3056.422543469029
 20
6867.176802516907
 30
0.0
 11
3056.422543469029
 21
7014.235626016908
 31
0.0
  0
LINE
  5
C43
330
1F
100
AcDbEntity
  8
STR
100
AcDbLine
 10
3218.187249319029
 20
6852.470920166908
 30
0.0
 11
3071.12842581903
 21
6852.470920166908
 31
0.0
  0
LINE
  5
C45
330
1F
100
AcDbEntity
  8
STR
100
AcDbLine
 10
3218.187249319029
 20
7323.059155366909
 30
0.0
 11
3071.12842581903
 21
7323.059155366909
 31
0.0
  0
LINE
  5
C46
330
1F
100
AcDbEntity
  8
BMK
100
AcDbLine
 10
3394.65783751903
 20
7207.897575358271
 30
0.0
 11
2894.65783761903
 21
7207.897575358271
 31
0.0
  0
LINE
  5
C47
330
1F
100
AcDbEntity
  8
BMK
100
AcDbLine
 10
3144.657837569029
 20
6957.897575408272
 30
0.0
 11
3144.657837569029
 21
7457.897575308272
 31
0.0
  0
LINE
  5
C48
330
1F
100
AcDbEntity
  8
STR
100
AcDbLine
 10
3218.187249319029
 20
7323.059155366909
 30
0.0
 11
3218.187249319029
 21
7014.235626016909
 31
0.0
  0
LINE
  5
C49
330
1F
100
AcDbEntity
  8
STR
100
AcDbLine
 10
3071.12842581903
 20
7323.059155366909
 30
0.0
 11
3071.12842581903
 21
7014.235626016909
 31
0.0
  0
LINE
  5
C4A
330
1F
100
AcDbEntity
  8
STR
100
AcDbLine
 10
2213.076331209027
 20
7323.059155366909
 30
0.0
 11
2213.076331209027
 21
6852.470920166908
 31
0.0
  0
LINE
  5
C4B
330
1F
100
AcDbEntity
  8
STR
100
AcDbLine
 10
2066.017507709027
 20
7323.059155366909
 30
0.0
 11
2066.017507709027
 21
6852.470920166908
 31
0.0
  0
LINE
  5
C4E
330
1F
100
AcDbEntity
  8
STR
100
AcDbLine
 10
2066.017507709027
 20
7323.059155366909
 30
0.0
 11
2213.076331209027
 21
7323.059155366909
 31
0.0
  0
LINE
  5
C50
330
1F
100
AcDbEntity
  8
STR
100
AcDbLine
 10
2028.627801834029
 20
6852.470920166908
 30
0.0
 11
2213.076331209027
 21
6852.470920166908
 31
0.0
  0
LINE
  5
C51
330
1F
100
AcDbEntity
  8
STR
100
AcDbLine
 10
2028.627801834029
 20
6852.470920166908
 30
0.0
 11
2028.627801834028
 21
6508.779928233273
 31
0.0
  0
LINE
  5
C52
330
1F
100
AcDbEntity
  8
STR
100
AcDbLine
 10
2028.627801834028
 20
6508.779928233271
 30
0.0
 11
2475.543555064027
 21
6508.779928233271
 31
0.0
  0
LINE
  5
C53
330
1F
100
AcDbEntity
  8
STR
100
AcDbLine
 10
2213.076331209027
 20
7014.235626016909
 30
0.0
 11
2227.782213559027
 21
7014.235626016909
 31
0.0
  0
LINE
  5
C54
330
1F
100
AcDbEntity
  8
STR
100
AcDbLine
 10
2213.076331209027
 20
6867.176802516908
 30
0.0
 11
2227.782213559027
 21
6867.176802516908
 31
0.0
  0
LINE
  5
C55
330
1F
100
AcDbEntity
  8
STR
100
AcDbLine
 10
3071.12842581903
 20
6867.176802516908
 30
0.0
 11
3071.12842581903
 21
6852.470920166908
 31
0.0
  0
LINE
  5
C56
330
1F
100
AcDbEntity
  8
STR
100
AcDbLine
 10
3218.187249319029
 20
6867.176802516908
 30
0.0
 11
3218.187249319029
 21
6852.470920166908
 31
0.0
  0
LINE
  5
C64
330
1F
100
AcDbEntity
  8
STR
100
AcDbLine
 10
3254.455756958739
 20
6867.176802516907
 30
0.0
 11
3254.455756958739
 21
5488.618348199634
 31
0.0
  0
LINE
  5
C6A
330
1F
100
AcDbEntity
  8
BMK
100
AcDbLine
 10
3411.224198660391
 20
6684.823861416908
 30
0.0
 11
3411.224198660391
 21
7184.823861316907
 31
0.0
  0
LINE
  5
C6B
330
1F
100
AcDbEntity
  8
BMK
100
AcDbLine
 10
3661.224198610391
 20
6934.823861366907
 30
0.0
 11
3161.224198710391
 21
6934.823861366907
 31
0.0
  0
LINE
  5
C6E
330
1F
100
AcDbEntity
  8
BMK
100
AcDbLine
 10
2139.546919459026
 20
6957.897575408272
 30
0.0
 11
2139.546919459026
 21
7457.897575308272
 31
0.0
  0
LINE
  5
C6F
330
1F
100
AcDbEntity
  8
BMK
100
AcDbLine
 10
2389.546919409027
 20
7207.897575358271
 30
0.0
 11
1889.546919509027
 21
7207.897575358271
 31
0.0
  0
LINE
  5
C72
330
1F
100
AcDbEntity
  8
BMK
100
AcDbLine
 10
1561.762674705324
 20
6940.706214266907
 30
0.0
 11
1061.762674805325
 21
6940.706214266907
 31
0.0
  0
LINE
  5
C73
330
1F
100
AcDbEntity
  8
BMK
100
AcDbLine
 10
1311.762674755324
 20
6690.706214316908
 30
0.0
 11
1311.762674755324
 21
7190.706214216908
 31
0.0
  0
LINE
  5
C77
330
1F
100
AcDbEntity
  8
BMK
100
AcDbLine
 10
1311.137674755324
 20
5665.088936399634
 30
0.0
 11
1311.137674755324
 21
5165.088936499634
 31
0.0
  0
LINE
  5
C78
330
1F
100
AcDbEntity
  8
BMK
100
AcDbLine
 10
1561.137674705325
 20
5415.088936449635
 30
0.0
 11
1061.137674805325
 21
5415.088936449635
 31
0.0
  0
LINE
  5
C7A
330
1F
100
AcDbEntity
  8
BMK
100
AcDbLine
 10
2388.921919409028
 20
5147.897575358271
 30
0.0
 11
1888.921919509027
 21
5147.897575358271
 31
0.0
  0
LINE
  5
C7B
330
1F
100
AcDbEntity
  8
BMK
100
AcDbLine
 10
2138.921919459027
 20
5397.89757530827
 30
0.0
 11
2138.921919459027
 21
4897.89757540827
 31
0.0
  0
ARC
  5
C7C
330
1F
100
AcDbEntity
  8
STR
100
AcDbCircle
 10
3411.224198660391
 20
5415.088936449635
 30
0.0
 40
205.8823529
100
AcDbArc
 50
200.9248324276385
 51
201.5883296784001
  0
LINE
  5
C7E
330
1F
100
AcDbEntity
  8
BMK
100
AcDbLine
 10
3661.224198610391
 20
5420.971289349634
 30
0.0
 11
3161.224198710391
 21
5420.971289349634
 31
0.0
  0
LINE
  5
C7F
330
1F
100
AcDbEntity
  8
BMK
100
AcDbLine
 10
3411.224198660391
 20
5670.971289299634
 30
0.0
 11
3411.224198660391
 21
5170.971289399634
 31
0.0
  0
LINE
  5
C81
330
1F
100
AcDbEntity
  8
STR
100
AcDbLine
 10
3217.562249319029
 20
5488.618348199633
 30
0.0
 11
3217.562249319029
 21
5503.324230549633
 31
0.0
  0
LINE
  5
C82
330
1F
100
AcDbEntity
  8
STR
100
AcDbLine
 10
3070.50342581903
 20
5488.618348199633
 30
0.0
 11
3070.50342581903
 21
5503.324230549633
 31
0.0
  0
LINE
  5
C83
330
1F
100
AcDbEntity
  8
STR
100
AcDbLine
 10
2212.451331209027
 20
5488.618348199633
 30
0.0
 11
2227.157213559028
 21
5488.618348199633
 31
0.0
  0
LINE
  5
C84
330
1F
100
AcDbEntity
  8
STR
100
AcDbLine
 10
2212.451331209027
 20
5341.559524699634
 30
0.0
 11
2227.157213559028
 21
5341.559524699634
 31
0.0
  0
LINE
  5
C85
330
1F
100
AcDbEntity
  8
STR
100
AcDbLine
 10
2028.627801834029
 20
5503.324230549632
 30
0.0
 11
2212.451331209027
 21
5503.324230549633
 31
0.0
  0
LINE
  5
C86
330
1F
100
AcDbEntity
  8
STR
100
AcDbLine
 10
2065.392507709028
 20
5032.735995349633
 30
0.0
 11
2212.451331209027
 21
5032.735995349633
 31
0.0
  0
LINE
  5
C87
330
1F
100
AcDbEntity
  8
STR
100
AcDbLine
 10
2065.392507709028
 20
5032.735995349633
 30
0.0
 11
2065.392507709028
 21
5503.324230549633
 31
0.0
  0
LINE
  5
C88
330
1F
100
AcDbEntity
  8
STR
100
AcDbLine
 10
2212.451331209027
 20
5032.735995349633
 30
0.0
 11
2212.451331209027
 21
5503.324230549633
 31
0.0
  0
LINE
  5
C89
330
1F
100
AcDbEntity
  8
STR
100
AcDbLine
 10
3070.50342581903
 20
5032.735995349633
 30
0.0
 11
3070.50342581903
 21
5341.559524699634
 31
0.0
  0
LINE
  5
C8A
330
1F
100
AcDbEntity
  8
STR
100
AcDbLine
 10
3217.562249319029
 20
5032.735995349633
 30
0.0
 11
3217.562249319029
 21
5341.559524699634
 31
0.0
  0
LINE
  5
C8B
330
1F
100
AcDbEntity
  8
BMK
100
AcDbLine
 10
3144.03283756903
 20
5403.779928208271
 30
0.0
 11
3144.03283756903
 21
4903.779928308271
 31
0.0
  0
LINE
  5
C8C
330
1F
100
AcDbEntity
  8
BMK
100
AcDbLine
 10
3394.032837519031
 20
5147.897575358271
 30
0.0
 11
2894.03283761903
 21
5147.897575358271
 31
0.0
  0
LINE
  5
C8D
330
1F
100
AcDbEntity
  8
STR
100
AcDbLine
 10
3217.562249319029
 20
5032.735995349633
 30
0.0
 11
3070.50342581903
 21
5032.735995349633
 31
0.0
  0
ARC
  5
C8E
330
1F
100
AcDbEntity
  8
STR
100
AcDbCircle
 10
3144.03283756903
 20
5147.897575358271
 30
0.0
 40
205.8823529
100
AcDbArc
 50
68.41167032160026
 51
70.15994903839622
  0
LINE
  5
C8F
330
1F
100
AcDbEntity
  8
STR
100
AcDbLine
 10
3217.562249319029
 20
5503.324230549633
 30
0.0
 11
3070.50342581903
 21
5503.324230549633
 31
0.0
  0
LINE
  5
C90
330
1F
100
AcDbEntity
  8
STR
100
AcDbLine
 10
3055.79754346903
 20
5488.618348199634
 30
0.0
 11
3055.79754346903
 21
5341.559524699634
 31
0.0
  0
LINE
  5
C91
330
1F
100
AcDbEntity
  8
STR
100
AcDbLine
 10
3526.385778669029
 20
5488.618348199634
 30
0.0
 11
3526.385778669029
 21
5341.559524699634
 31
0.0
  0
LINE
  5
C92
330
1F
100
AcDbEntity
  8
STR
100
AcDbLine
 10
3526.385778669029
 20
5488.618348199634
 30
0.0
 11
3055.79754346903
 21
5488.618348199634
 31
0.0
  0
LINE
  5
C93
330
1F
100
AcDbEntity
  8
STR
100
AcDbLine
 10
3526.385778669029
 20
5341.559524699634
 30
0.0
 11
3055.79754346903
 21
5341.559524699634
 31
0.0
  0
LINE
  5
C94
330
1F
100
AcDbEntity
  8
STR
100
AcDbLine
 10
1195.976094746687
 20
5488.618348199633
 30
0.0
 11
1195.976094746687
 21
5341.559524699634
 31
0.0
  0
LINE
  5
C95
330
1F
100
AcDbEntity
  8
STR
100
AcDbLine
 10
1195.976094746687
 20
5341.559524699635
 30
0.0
 11
2065.392507709028
 21
5341.559524699633
 31
0.0
  0
LINE
  5
C96
330
1F
100
AcDbEntity
  8
STR
100
AcDbLine
 10
1195.976094746687
 20
5488.618348199633
 30
0.0
 11
2065.392507709028
 21
5488.618348199633
 31
0.0
  0
LINE
  5
C97
330
1F
100
AcDbEntity
  8
STR
100
AcDbLine
 10
2227.157213559028
 20
5488.618348199633
 30
0.0
 11
2227.157213559028
 21
5341.559524699634
 31
0.0
  0
LINE
  5
C99
330
1F
100
AcDbEntity
  8
STR
100
AcDbLine
 10
2227.782213559027
 20
7014.235626016909
 30
0.0
 11
3056.422543469029
 21
7014.235626016908
 31
0.0
  0
LINE
  5
C9A
330
1F
100
AcDbEntity
  8
STR
100
AcDbLine
 10
2227.157213559028
 20
5341.559524699633
 30
0.0
 11
3055.79754346903
 21
5341.559524699633
 31
0.0
  0
LINE
  5
C9F
330
1F
100
AcDbEntity
  8
BMK
100
AcDbLine
 10
2244.418555064029
 20
6328.632869445771
 30
0.0
 11
2244.418555064029
 21
6027.16228127077
 31
0.0
  0
LINE
  5
DC1
330
1F
100
AcDbEntity
  8
BMK
100
AcDbLine
 10
1804.918555064028
 20
3252.076441805966
 30
0.0
 11
1804.918555064028
 21
372.6949968303833
 31
0.0
  0
LINE
  5
DC7
330
1F
100
AcDbEntity
  8
STR
100
AcDbLine
 10
2105.543555064028
 20
751.801857649405
 30
0.0
 11
3254.455756958738
 21
751.801857649405
 31
0.0
  0
LINE
  5
DCC
330
1F
100
AcDbEntity
  8
STR
100
AcDbLine
 10
2475.543555064027
 20
921.801857649406
 30
0.0
 11
2595.543555064026
 21
921.8018576494051
 31
0.0
  0
LINE
  5
DD0
330
1F
100
AcDbEntity
  8
STR
100
AcDbLine
 10
2105.543555064028
 20
891.801857649405
 30
0.0
 11
3254.455756958739
 21
891.801857649405
 31
0.0
  0
LINE
  5
DD4
330
1F
100
AcDbEntity
  8
STR
100
AcDbLine
 10
3254.455756958739
 20
891.801857649405
 30
0.0
 11
3254.455756958738
 21
751.801857649406
 31
0.0
  0
LINE
  5
DD5
330
1F
100
AcDbEntity
  8
BMK
100
AcDbLine
 10
2634.793555064027
 20
1299.37572460592
 30
0.0
 11
2634.793555064027
 21
804.7263299275728
 31
0.0
  0
LINE
  5
DD7
330
1F
100
AcDbEntity
  8
BMK
100
AcDbLine
 10
2534.918555064027
 20
1402.029527944162
 30
0.0
 11
2534.918555064027
 21
819.7670076163703
 31
0.0
  0
LINE
  5
DD8
330
1F
100
AcDbEntity
  8
STR
100
AcDbLine
 10
2495.543555064029
 20
1231.801857649405
 30
0.0
 11
2495.543555064028
 21
921.801857649406
 31
0.0
  0
LINE
  5
DD9
330
1F
100
AcDbEntity
  8
STR
100
AcDbLine
 10
2574.918555064027
 20
1331.801857649405
 30
0.0
 11
2574.918555064026
 21
921.801857649406
 31
0.0
  0
LINE
  5
DDA
330
1F
100
AcDbEntity
  8
STR
100
AcDbLine
 10
2475.543555064027
 20
921.8018576494051
 30
0.0
 11
2475.543555064027
 21
891.801857649405
 31
0.0
  0
LINE
  5
DE0
330
1F
100
AcDbEntity
  8
STR
100
AcDbLine
 10
2328.918555064027
 20
1231.801857649405
 30
0.0
 11
2574.918555064027
 21
1231.801857649405
 31
0.0
  0
LINE
  5
DE1
330
1F
100
AcDbEntity
  8
STR
100
AcDbLine
 10
2328.918555064027
 20
1351.801857649405
 30
0.0
 11
2348.918555064027
 21
1351.801857649405
 31
0.0
  0
LINE
  5
DE2
330
1F
100
AcDbEntity
  8
STR
100
AcDbLine
 10
2348.918555064027
 20
1331.801857649404
 30
0.0
 11
2574.918555064027
 21
1331.801857649405
 31
0.0
  0
LINE
  5
DE3
330
1F
100
AcDbEntity
  8
STR
100
AcDbLine
 10
2348.918555064027
 20
1351.801857649405
 30
0.0
 11
2348.918555064027
 21
1231.801857649405
 31
0.0
  0
LINE
  5
DE6
330
1F
100
AcDbEntity
  8
BMK
100
AcDbLine
 10
2742.521095442472
 20
1276.17492460835
 30
0.0
 11
2181.7205787227
 21
1276.17492460835
 31
0.0
  0
LINE
  5
DE8
330
1F
100
AcDbEntity
  8
BMK
100
AcDbLine
 10
2138.921919459026
 20
1039.757784436712
 30
0.0
 11
2138.921919459026
 21
669.7577844367115
 31
0.0
  0
LINE
  5
DED
330
1F
100
AcDbEntity
  8
BMK
100
AcDbLine
 10
1311.137674755324
 20
1039.757784436712
 30
0.0
 11
1311.137674755324
 21
669.7577844367115
 31
0.0
  0
LINE
  5
DF0
330
1F
100
AcDbEntity
  8
BMK
100
AcDbLine
 10
3144.032837569029
 20
1101.801857649405
 30
0.0
 11
3144.03283756903
 21
671.801857649405
 31
0.0
  0
LINE
  5
DF1
330
1F
100
AcDbEntity
  8
STR
100
AcDbLine
 10
3079.032837569029
 20
721.801857649405
 30
0.0
 11
3209.032837569031
 21
721.801857649405
 31
0.0
  0
LINE
  5
DF2
330
1F
100
AcDbEntity
  8
STR
100
AcDbLine
 10
3055.797543469029
 20
781.8018576494068
 30
0.0
 11
3526.385778669029
 21
781.8018576494068
 31
0.0
  0
LINE
  5
DF3
330
1F
100
AcDbEntity
  8
STR
100
AcDbLine
 10
3055.797543469029
 20
841.8018576494054
 30
0.0
 11
3526.385778669028
 21
841.8018576494077
 31
0.0
  0
LINE
  5
DFC
330
1F
100
AcDbEntity
  8
STR
100
AcDbLine
 10
3070.503425819029
 20
891.8018576494059
 30
0.0
 11
3070.50342581903
 21
1051.801857649405
 31
0.0
  0
LINE
  5
DFE
330
1F
100
AcDbEntity
  8
STR
100
AcDbLine
 10
3084.03283756903
 20
1051.801857649405
 30
0.0
 11
3204.03283756903
 21
1051.801857649405
 31
0.0
  0
LINE
  5
DFF
330
1F
100
AcDbEntity
  8
STR
100
AcDbLine
 10
3217.562249319029
 20
891.8018576494059
 30
0.0
 11
3217.562249319029
 21
1051.801857649405
 31
0.0
  0
LINE
  5
E03
330
1F
100
AcDbEntity
  8
STR
100
AcDbLine
 10
2595.543555064027
 20
921.8018576494051
 30
0.0
 11
2595.543555064027
 21
891.801857649405
 31
0.0
  0
LINE
  5
E05
330
1F
100
AcDbEntity
  8
STR
100
AcDbLine
 10
3351.224198660389
 20
721.801857649405
 30
0.0
 11
3481.224198660391
 21
721.801857649405
 31
0.0
  0
LINE
  5
E06
330
1F
100
AcDbEntity
  8
BMK
100
AcDbLine
 10
3411.22419866039
 20
1041.801857649405
 30
0.0
 11
3411.224198660391
 21
671.801857649405
 31
0.0
  0
LINE
  5
F21
330
1F
100
AcDbEntity
  8
STR
100
AcDbLine
 10
2169.918555064027
 20
1231.801857649405
 30
0.0
 11
2328.918555064027
 21
1231.801857649405
 31
0.0
  0
LINE
  5
F27
330
1F
100
AcDbEntity
  8
STR
100
AcDbLine
 10
1504.918555064027
 20
2831.801857649406
 30
0.0
 11
1324.918555064027
 21
2831.801857649406
 31
0.0
  0
LINE
  5
F28
330
1F
100
AcDbEntity
  8
STR
100
AcDbLine
 10
1504.918555064027
 20
2891.801857649406
 30
0.0
 11
1324.918555064027
 21
2891.801857649406
 31
0.0
  0
LINE
  5
F29
330
1F
100
AcDbEntity
  8
STR
100
AcDbLine
 10
1324.918555064027
 20
2811.801857649406
 30
0.0
 11
1128.918555064028
 21
2811.801857649406
 31
0.0
  0
LINE
  5
F2A
330
1F
100
AcDbEntity
  8
STR
100
AcDbLine
 10
1324.918555064027
 20
2911.801857649406
 30
0.0
 11
1128.918555064028
 21
2911.801857649406
 31
0.0
  0
LINE
  5
F2B
330
1F
100
AcDbEntity
  8
STR
100
AcDbLine
 10
1324.918555064027
 20
2911.801857649406
 30
0.0
 11
1324.918555064027
 21
2811.801857649406
 31
0.0
  0
LINE
  5
F2C
330
1F
100
AcDbEntity
  8
STR
100
AcDbLine
 10
1128.918555064028
 20
2911.801857649406
 30
0.0
 11
1128.918555064028
 21
2811.801857649406
 31
0.0
  0
LINE
  5
F4F
330
1F
100
AcDbEntity
  8
BMK
100
AcDbLine
 10
2139.918555064028
 20
3206.801857649406
 30
0.0
 11
2358.918555064029
 21
3206.801857649406
 31
0.0
  0
LINE
  5
F50
330
1F
100
AcDbEntity
  8
STR
100
AcDbLine
 10
2328.918555064028
 20
3191.801857649406
 30
0.0
 11
2169.918555064028
 21
3191.801857649406
 31
0.0
  0
LINE
  5
F51
330
1F
100
AcDbEntity
  8
STR
100
AcDbLine
 10
2169.918555064028
 20
3221.801857649406
 30
0.0
 11
2328.918555064028
 21
3221.801857649406
 31
0.0
  0
LINE
  5
F59
330
1F
100
AcDbEntity
  8
STR
100
AcDbLine
 10
2104.918555064027
 20
1441.801857649405
 30
0.0
 11
1504.918555064026
 21
1441.801857649406
 31
0.0
  0
LINE
  5
F5D
330
1F
100
AcDbEntity
  8
BMK
100
AcDbLine
 10
2244.418555064028
 20
3270.279624243507
 30
0.0
 11
2244.418555064028
 21
3116.887178940871
 31
0.0
  0
LINE
  5
F5E
330
1F
100
AcDbEntity
  8
STR
100
AcDbLine
 10
2144.918555064028
 20
2721.801857649405
 30
0.0
 11
2084.918555064028
 21
2721.801857649405
 31
0.0
  0
LINE
  5
F5F
330
1F
100
AcDbEntity
  8
STR
100
AcDbLine
 10
2084.918555064028
 20
3011.801857649405
 30
0.0
 11
2084.918555064028
 21
2721.801857649405
 31
0.0
  0
LINE
  5
F60
330
1F
100
AcDbEntity
  8
STR
100
AcDbLine
 10
2234.918555064028
 20
3171.801857649406
 30
0.0
 11
2234.918555064028
 21
3101.801857649406
 31
0.0
  0
LINE
  5
F61
330
1F
100
AcDbEntity
  8
STR
100
AcDbLine
 10
2234.918555064028
 20
3171.801857649406
 30
0.0
 11
2144.918555064028
 21
3171.801857649406
 31
0.0
  0
LINE
  5
F64
330
1F
100
AcDbEntity
  8
STR
100
AcDbLine
 10
2234.918555064028
 20
2661.801857649405
 30
0.0
 11
2144.918555064028
 21
2661.801857649405
 31
0.0
  0
LINE
  5
F67
330
1F
100
AcDbEntity
  8
STR
100
AcDbLine
 10
1854.918555064028
 20
3001.801857649406
 30
0.0
 11
1854.918555064028
 21
2971.801857649406
 31
0.0
  0
LINE
  5
F68
330
1F
100
AcDbEntity
  8
STR
100
AcDbLine
 10
1754.918555064027
 20
3001.801857649406
 30
0.0
 11
1754.918555064027
 21
2971.801857649406
 31
0.0
  0
LINE
  5
F69
330
1F
100
AcDbEntity
  8
STR
100
AcDbLine
 10
1754.918555064027
 20
3001.801857649406
 30
0.0
 11
1854.918555064028
 21
3001.801857649406
 31
0.0
  0
LINE
  5
F6A
330
1F
100
AcDbEntity
  8
STR
100
AcDbLine
 10
1684.918555064026
 20
2971.801857649406
 30
0.0
 11
1924.918555064027
 21
2971.801857649406
 31
0.0
  0
LINE
  5
F6B
330
1F
100
AcDbEntity
  8
STR
100
AcDbLine
 10
1924.918555064028
 20
3131.801857649406
 30
0.0
 11
2064.918555064028
 21
3131.801857649406
 31
0.0
  0
LINE
  5
F6C
330
1F
100
AcDbEntity
  8
STR
100
AcDbLine
 10
1924.918555064028
 20
2941.801857649405
 30
0.0
 11
1924.918555064028
 21
3131.801857649406
 31
0.0
  0
LINE
  5
F6D
330
1F
100
AcDbEntity
  8
STR
100
AcDbLine
 10
2064.918555064028
 20
2941.801857649405
 30
0.0
 11
2064.918555064028
 21
3131.801857649406
 31
0.0
  0
LINE
  5
F6E
330
1F
100
AcDbEntity
  8
STR
100
AcDbLine
 10
1544.918555064027
 20
2941.801857649405
 30
0.0
 11
1544.918555064026
 21
3131.801857649406
 31
0.0
  0
LINE
  5
F6F
330
1F
100
AcDbEntity
  8
STR
100
AcDbLine
 10
1684.918555064026
 20
2941.801857649405
 30
0.0
 11
1684.918555064026
 21
3131.801857649406
 31
0.0
  0
LINE
  5
F71
330
1F
100
AcDbEntity
  8
STR
100
AcDbLine
 10
1504.918555064027
 20
2941.801857649405
 30
0.0
 11
1504.918555064027
 21
2781.801857649406
 31
0.0
  0
LINE
  5
F72
330
1F
100
AcDbEntity
  8
STR
100
AcDbLine
 10
2084.918555064028
 20
2941.801857649405
 30
0.0
 11
1504.918555064027
 21
2941.801857649405
 31
0.0
  0
LINE
  5
F73
330
1F
100
AcDbEntity
  8
STR
100
AcDbLine
 10
1924.918555064028
 20
2781.801857649405
 30
0.0
 11
1924.918555064028
 21
2731.801857649405
 31
0.0
  0
LINE
  5
F74
330
1F
100
AcDbEntity
  8
STR
100
AcDbLine
 10
1684.918555064028
 20
2781.801857649406
 30
0.0
 11
1684.918555064028
 21
2731.801857649406
 31
0.0
  0
LINE
  5
F75
330
1F
100
AcDbEntity
  8
STR
100
AcDbLine
 10
1904.918555064028
 20
2691.801857649405
 30
0.0
 11
1904.918555064028
 21
2611.801857649405
 31
0.0
  0
LINE
  5
F76
330
1F
100
AcDbEntity
  8
STR
100
AcDbLine
 10
1704.918555064027
 20
2691.801857649406
 30
0.0
 11
1704.918555064027
 21
2611.801857649405
 31
0.0
  0
LINE
  5
F77
330
1F
100
AcDbEntity
  8
STR
100
AcDbLine
 10
2004.918555064028
 20
2611.801857649405
 30
0.0
 11
2004.918555064028
 21
2561.801857649405
 31
0.0
  0
LINE
  5
F78
330
1F
100
AcDbEntity
  8
STR
100
AcDbLine
 10
1604.918555064027
 20
2611.801857649405
 30
0.0
 11
1604.918555064027
 21
2561.801857649406
 31
0.0
  0
LINE
  5
F79
330
1F
100
AcDbEntity
  8
STR
100
AcDbLine
 10
2084.918555064028
 20
2781.801857649405
 30
0.0
 11
1504.918555064027
 21
2781.801857649406
 31
0.0
  0
LINE
  5
F7A
330
1F
100
AcDbEntity
  8
STR
100
AcDbLine
 10
1924.918555064028
 20
2731.801857649405
 30
0.0
 11
1684.918555064028
 21
2731.801857649406
 31
0.0
  0
LINE
  5
F7B
330
1F
100
AcDbEntity
  8
STR
100
AcDbLine
 10
1904.918555064028
 20
2691.801857649405
 30
0.0
 11
1704.918555064027
 21
2691.801857649406
 31
0.0
  0
LINE
  5
F7C
330
1F
100
AcDbEntity
  8
STR
100
AcDbLine
 10
2004.918555064028
 20
2611.801857649405
 30
0.0
 11
1604.918555064027
 21
2611.801857649405
 31
0.0
  0
LINE
  5
F7D
330
1F
100
AcDbEntity
  8
STR
100
AcDbLine
 10
2104.918555064028
 20
2561.801857649405
 30
0.0
 11
1504.918555064027
 21
2561.801857649406
 31
0.0
  0
LINE
  5
F7E
330
1F
100
AcDbEntity
  8
STR
100
AcDbLine
 10
1504.918555064027
 20
2561.801857649406
 30
0.0
 11
1504.918555064026
 21
476.17492460835
 31
0.0
  0
LINE
  5
F7F
330
1F
100
AcDbEntity
  8
STR
100
AcDbLine
 10
2104.918555064028
 20
2561.801857649405
 30
0.0
 11
2104.918555064026
 21
476.1749246083509
 31
0.0
  0
LINE
  5
F80
330
1F
100
AcDbEntity
  8
STR
100
AcDbLine
 10
1684.918555064026
 20
3131.801857649406
 30
0.0
 11
1544.918555064027
 21
3131.801857649406
 31
0.0
  0
LINE
  5
F81
330
1F
100
AcDbEntity
  8
STR
100
AcDbLine
 10
2104.918555064028
 20
2521.801857649405
 30
0.0
 11
1504.918555064027
 21
2521.801857649406
 31
0.0
  0
LINE
  5
F82
330
1F
100
AcDbEntity
  8
STR
100
AcDbLine
 10
2144.918555064028
 20
3171.801857649406
 30
0.0
 11
2144.918555064028
 21
3101.801857649406
 31
0.0
  0
LINE
  5
F83
330
1F
100
AcDbEntity
  8
STR
100
AcDbLine
 10
2328.918555064028
 20
3181.801857649406
 30
0.0
 11
2169.918555064028
 21
3181.801857649406
 31
0.0
  0
LINE
  5
F84
330
1F
100
AcDbEntity
  8
STR
100
AcDbLine
 10
2169.918555064028
 20
3221.801857649406
 30
0.0
 11
2169.918555064028
 21
3171.801857649406
 31
0.0
  0
LINE
  5
F85
330
1F
100
AcDbEntity
  8
STR
100
AcDbLine
 10
2328.918555064028
 20
3221.801857649406
 30
0.0
 11
2328.918555064027
 21
1231.801857649405
 31
0.0
  0
LINE
  5
119E
330
1F
100
AcDbEntity
  8
STR
100
AcDbLine
 10
2169.918555064028
 20
3101.801857649406
 30
0.0
 11
2169.918555064028
 21
3071.801857649406
 31
0.0
  0
LINE
  5
119F
330
1F
100
AcDbEntity
  8
STR
100
AcDbLine
 10
2144.918555064028
 20
3011.801857649405
 30
0.0
 11
2084.918555064028
 21
3011.801857649405
 31
0.0
  0
LINE
  5
11A0
330
1F
100
AcDbEntity
  8
STR
100
AcDbLine
 10
2234.918555064028
 20
3071.801857649406
 30
0.0
 11
2144.918555064028
 21
3071.801857649406
 31
0.0
  0
LINE
  5
11A1
330
1F
100
AcDbEntity
  8
STR
100
AcDbLine
 10
2234.918555064028
 20
3101.801857649406
 30
0.0
 11
2144.918555064028
 21
3101.801857649406
 31
0.0
  0
LINE
  5
11A2
330
1F
100
AcDbEntity
  8
STR
100
AcDbLine
 10
2169.918555064028
 20
2661.801857649405
 30
0.0
 11
2169.918555064027
 21
1231.801857649405
 31
0.0
  0
LINE
  5
11A3
330
1F
100
AcDbEntity
  8
STR
100
AcDbLine
 10
2144.918555064028
 20
3071.801857649406
 30
0.0
 11
2144.918555064028
 21
2661.801857649405
 31
0.0
  0
LINE
  5
11A4
330
1F
100
AcDbEntity
  8
STR
100
AcDbLine
 10
2234.918555064028
 20
3071.801857649406
 30
0.0
 11
2234.918555064028
 21
2661.801857649405
 31
0.0
  0
LINE
  5
11A8
330
1F
100
AcDbEntity
  8
STR
100
AcDbLine
 10
2378.918555064028
 20
2521.801857649406
 30
0.0
 11
2378.918555064028
 21
2341.801857649405
 31
0.0
  0
LINE
  5
11A9
330
1F
100
AcDbEntity
  8
STR
100
AcDbLine
 10
2378.918555064028
 20
2521.801857649406
 30
0.0
 11
2328.918555064028
 21
2521.801857649405
 31
0.0
  0
LINE
  5
11AA
330
1F
100
AcDbEntity
  8
STR
100
AcDbLine
 10
2378.918555064028
 20
2341.801857649405
 30
0.0
 11
2328.918555064028
 21
2341.801857649405
 31
0.0
  0
LINE
  5
11AB
330
1F
100
AcDbEntity
  8
BMK
100
AcDbLine
 10
2428.918555064028
 20
2431.801857649405
 30
0.0
 11
2278.918555064028
 21
2431.801857649405
 31
0.0
  0
LINE
  5
11AC
330
1F
100
AcDbEntity
  8
STR
100
AcDbLine
 10
3217.143621774361
 20
891.801857649405
 30
0.0
 11
2291.011727799368
 21
2496.768084205692
 31
0.0
  0
LINE
  5
11AD
330
1F
100
AcDbEntity
  8
BMK
100
AcDbLine
 10
3332.058297337182
 20
971.801857649406
 30
0.0
 11
3051.658038977297
 21
971.801857649406
 31
0.0
  0
LINE
  5
11B2
330
1F
100
AcDbEntity
  8
STR
100
AcDbLine
 10
2873.758813629032
 20
1586.920339186606
 30
0.0
 11
2693.83105940989
 21
1898.731184510588
 31
0.0
  0
LINE
  5
11B3
330
1F
100
AcDbEntity
  8
STR
100
AcDbLine
 10
2787.144689927927
 20
1536.940407459067
 30
0.0
 11
2607.216935708784
 21
1848.751252783048
 31
0.0
  0
LINE
  5
11B5
330
1F
100
AcDbEntity
  8
STR
100
AcDbLine
 10
2693.83105940989
 20
1898.731184510588
 30
0.0
 11
2607.216935708784
 21
1848.751252783048
 31
0.0
  0
LINE
  5
11B8
330
1F
100
AcDbEntity
  8
STR
100
AcDbLine
 10
2873.758813629032
 20
1586.920339186606
 30
0.0
 11
2787.144689927927
 21
1536.940407459067
 31
0.0
  0
LINE
  5
11B9
330
1F
100
AcDbEntity
  8
STR
100
AcDbLine
 10
2816.452043506779
 20
1646.215651801983
 30
0.0
 11
2764.483569286117
 21
1616.227692765459
 31
0.0
  0
LINE
  5
11BA
330
1F
100
AcDbEntity
  8
STR
100
AcDbLine
 10
2716.492180051701
 20
1819.443899204196
 30
0.0
 11
2664.523705831037
 21
1789.455940167671
 31
0.0
  0
LINE
  5
11BB
330
1F
100
AcDbEntity
  8
STR
100
AcDbLine
 10
2816.452043506779
 20
1646.215651801983
 30
0.0
 11
2716.492180051701
 21
1819.443899204196
 31
0.0
  0
LINE
  5
11BC
330
1F
100
AcDbEntity
  8
STR
100
AcDbLine
 10
2764.483569286117
 20
1616.227692765459
 30
0.0
 11
2664.523705831038
 21
1789.455940167671
 31
0.0
  0
LINE
  5
1203
330
1F
100
AcDbEntity
  8
STR
100
AcDbLine
 10
1504.918555064026
 20
476.1749246083509
 30
0.0
 11
2104.918555064027
 21
476.1749246083509
 31
0.0
  0
LINE
  5
1360
330
1F
100
AcDbEntity
  8
STR
100
AcDbLine
 10
1504.918555064026
 20
1603.801425041257
 30
0.0
 11
1304.918555064026
 21
1603.801425041257
 31
0.0
  0
LINE
  5
1361
330
1F
100
AcDbEntity
  8
STR
100
AcDbLine
 10
1304.918555064026
 20
1603.801425041257
 30
0.0
 11
1304.918555064026
 21
2039.377711844601
 31
0.0
  0
TEXT
  5
1362
330
1F
100
AcDbEntity
  8
STR
100
AcDbText
 10
1280.813422622067
 20
1625.194923522155
 30
0.0
 40
60.0
  1
MAX600A
 50
90.0
100
AcDbText
  0
TEXT
  5
1363
330
1F
100
AcDbEntity
  8
STR
100
AcDbText
 10
1348.439632566962
 20
3773.646806557931
 30
0.0
 40
60.0
  1
KYT-408WH
100
AcDbText
  0
LINE
  5
1364
330
1F
100
AcDbEntity
  8
STR
100
AcDbLine
 10
1327.046134086064
 20
3749.541674115972
 30
0.0
 11
1904.907867851961
 21
3749.541674115972
 31
0.0
  0
LINE
  5
1365
330
1F
100
AcDbEntity
  8
STR
100
AcDbLine
 10
1544.918555064026
 20
3131.801857649406
 30
0.0
 11
1327.046134086063
 21
3749.541674115972
 31
0.0
  0
LINE
  5
13A9
330
1F
100
AcDbEntity
  8
STR
100
AcDbLine
 10
1764.918555064027
 20
3131.801857649405
 30
0.0
 11
1844.918555064028
 21
3131.801857649405
 31
0.0
  0
LINE
  5
13AB
330
1F
100
AcDbEntity
  8
STR
100
AcDbLine
 10
1904.918555064027
 20
3181.801857649406
 30
0.0
 11
1904.918555064027
 21
3231.801857649406
 31
0.0
  0
LINE
  5
13AD
330
1F
100
AcDbEntity
  8
STR
100
AcDbLine
 10
1764.918555064028
 20
3231.801857649406
 30
0.0
 11
1764.918555064028
 21
3131.801857649406
 31
0.0
  0
LINE
  5
13AE
330
1F
100
AcDbEntity
  8
STR
100
AcDbLine
 10
1844.918555064028
 20
3181.801857649406
 30
0.0
 11
1844.918555064028
 21
3131.801857649406
 31
0.0
  0
LINE
  5
13AF
330
1F
100
AcDbEntity
  8
STR
100
AcDbLine
 10
1844.918555064028
 20
3181.801857649406
 30
0.0
 11
1904.918555064027
 21
3181.801857649406
 31
0.0
  0
LINE
  5
13B0
330
1F
100
AcDbEntity
  8
STR
100
AcDbLine
 10
1904.918555064027
 20
3231.801857649406
 30
0.0
 11
1764.918555064027
 21
3231.801857649406
 31
0.0
  0
LINE
  5
13B1
330
1F
100
AcDbEntity
  8
STR
100
AcDbLine
 10
1656.20465294436
 20
3623.121366226921
 30
0.0
 11
2340.751112708585
 21
3623.121366226921
 31
0.0
  0
LINE
  5
13B2
330
1F
100
AcDbEntity
  8
STR
100
AcDbLine
 10
1804.918555064028
 20
3201.468647681497
 30
0.0
 11
1656.20465294436
 21
3623.121366226921
 31
0.0
  0
TEXT
  5
13B3
330
1F
100
AcDbEntity
  8
STR
100
AcDbText
 10
1677.598151425257
 20
3647.226498668881
 30
0.0
 40
60.0
  1
ウォータースイベル
100
AcDbText
  0
ARC
  5
142F
330
1F
100
AcDbEntity
  8
STR
100
AcDbCircle
 10
1311.762674755325
 20
6940.706214266907
 30
0.0
 40
200.0
100
AcDbArc
 50
21.57057829707859
 51
338.4294217029216
  0
ARC
  5
1430
330
1F
100
AcDbEntity
  8
STR
100
AcDbCircle
 10
2139.546919459027
 20
7207.897575358271
 30
0.0
 40
200.0
100
AcDbArc
 50
291.5705782970786
 51
248.4294217029214
  0
ARC
  5
1432
330
1F
100
AcDbEntity
  8
STR
100
AcDbCircle
 10
3411.849198660391
 20
6940.706214266907
 30
0.0
 40
200.0
100
AcDbArc
 50
218.0970111711212
 51
115.8501948534452
  0
ARC
  5
1436
330
1F
100
AcDbEntity
  8
STR
100
AcDbCircle
 10
3144.657837569031
 20
7207.897575358271
 30
0.0
 40
200.0
100
AcDbArc
 50
334.1498051465541
 51
248.429421702921
  0
ARC
  5
1440
330
1F
100
AcDbEntity
  8
STR
100
AcDbCircle
 10
3144.032837569032
 20
5147.897575358271
 30
0.0
 40
200.0
100
AcDbArc
 50
111.5705782970789
 51
25.85019485344591
  0
ARC
  5
1441
330
1F
100
AcDbEntity
  8
STR
100
AcDbCircle
 10
3411.224198660391
 20
5415.088936449635
 30
0.0
 40
200.0
100
AcDbArc
 50
244.1498051465547
 51
141.6137231481116
  0
ARC
  5
1442
330
1F
100
AcDbEntity
  8
STR
100
AcDbCircle
 10
2138.921919459027
 20
5147.897575358271
 30
0.0
 40
200.0
100
AcDbArc
 50
111.5705782970785
 51
68.42942170292132
  0
ARC
  5
1443
330
1F
100
AcDbEntity
  8
STR
100
AcDbCircle
 10
1311.137674755325
 20
5415.088936449635
 30
0.0
 40
200.0
100
AcDbArc
 50
21.5705782970784
 51
338.4294217029213
  0
LINE
  5
14F3
330
1F
100
AcDbEntity
  8
STR
100
AcDbLine
 10
1504.918555064027
 20
5979.368163633271
 30
0.0
 11
1504.918555064028
 21
6376.42698708327
 31
0.0
  0
LINE
  5
1536
330
1F
100
AcDbEntity
  8
BMK
100
AcDbLine
 10
3411.224198660391
 20
1119.329907750633
 30
0.0
 11
3411.224198660391
 21
619.3299078506343
 31
0.0
  0
LINE
  5
1538
330
1F
100
AcDbEntity
  8
STR
100
AcDbLine
 10
3055.797543469029
 20
841.8018576494056
 30
0.0
 11
3055.797543469029
 21
781.8018576494069
 31
0.0
  0
LINE
  5
1539
330
1F
100
AcDbEntity
  8
STR
100
AcDbLine
 10
3526.385778669029
 20
841.801857649408
 30
0.0
 11
3526.385778669029
 21
781.8018576494068
 31
0.0
  0
LINE
  5
153A
330
1F
100
AcDbEntity
  8
STR
100
AcDbLine
 10
3217.562249319029
 20
1051.801857649405
 30
0.0
 11
3070.50342581903
 21
1051.801857649405
 31
0.0
  0
LINE
  5
1566
330
1F
100
AcDbEntity
  8
STR
100
AcDbLine
 10
2348.918555064027
 20
6442.603457658269
 30
0.0
 11
2348.918555064028
 21
6426.059340014521
 31
0.0
  0
LINE
  5
1568
330
1F
100
AcDbEntity
  8
STR
100
AcDbLine
 10
2348.918555064028
 20
6326.794634152022
 30
0.0
 11
2348.918555064028
 21
6310.250516508272
 31
0.0
  0
LINE
  5
1569
330
1F
100
AcDbEntity
  8
STR
100
AcDbLine
 10
2348.918555064028
 20
6045.544634208272
 30
0.0
 11
2348.918555064027
 21
6029.00051656452
 31
0.0
  0
LINE
  5
156A
330
1F
100
AcDbEntity
  8
STR
100
AcDbLine
 10
2348.918555064027
 20
5929.735810702021
 30
0.0
 11
2348.918555064028
 21
5913.191693058271
 31
0.0
  0
LINE
  5
156E
330
1F
100
AcDbEntity
  8
STR
100
AcDbLine
 10
1504.918555064027
 20
5979.368163633271
 30
0.0
 11
1504.918555064028
 21
6376.426987083271
 31
0.0
  0
LINE
  5
1570
330
1F
100
AcDbEntity
  8
STR
100
AcDbLine
 10
1932.038628044222
 20
5979.368163633271
 30
0.0
 11
1932.038628044222
 21
6157.950608483077
 31
0.0
  0
LINE
  5
1571
330
1F
100
AcDbEntity
  8
STR
100
AcDbLine
 10
1932.038628044222
 20
6376.42698708327
 30
0.0
 11
1932.038628044222
 21
6197.844542233465
 31
0.0
  0
LINE
  5
1572
330
1F
100
AcDbEntity
  8
STR
100
AcDbLine
 10
2104.918555064029
 20
6197.844542233463
 30
0.0
 11
1932.038628044221
 21
6197.844542233465
 31
0.0
  0
LINE
  5
1574
330
1F
100
AcDbEntity
  8
STR
100
AcDbLine
 10
1932.038628044222
 20
6157.950608483077
 30
0.0
 11
2104.918555064029
 21
6157.950608483077
 31
0.0
  0
LINE
  5
1575
330
1F
100
AcDbEntity
  8
STR
100
AcDbLine
 10
2144.918555064028
 20
5880.103457770769
 30
0.0
 11
2144.918555064029
 21
6475.691692945769
 31
0.0
  0
LINE
  5
1578
330
1F
100
AcDbEntity
  8
STR
100
AcDbLine
 10
1195.976094746687
 20
841.8018576494025
 30
0.0
 11
1195.976094746687
 21
781.8018576494069
 31
0.0
  0
LINE
  5
157B
330
1F
100
AcDbEntity
  8
STR
100
AcDbLine
 10
1237.608263005324
 20
719.7577844367115
 30
0.0
 11
1384.667086505324
 21
719.7577844367115
 31
0.0
  0
LINE
  5
157C
330
1F
100
AcDbEntity
  8
STR
100
AcDbLine
 10
2227.157213559027
 20
891.801857649405
 30
0.0
 11
2227.157213559026
 21
751.8018576494052
 31
0.0
  0
LINE
  5
157D
330
1F
100
AcDbEntity
  8
STR
100
AcDbLine
 10
1195.976094746687
 20
781.8018576494069
 30
0.0
 11
2227.157213559027
 21
781.8018576494071
 31
0.0
  0
LINE
  5
157E
330
1F
100
AcDbEntity
  8
STR
100
AcDbLine
 10
1195.976094746687
 20
841.8018576494027
 30
0.0
 11
2227.157213559027
 21
841.8018576494088
 31
0.0
  0
LINE
  5
157F
330
1F
100
AcDbEntity
  8
STR
100
AcDbLine
 10
2212.451331209027
 20
751.8018576494052
 30
0.0
 11
2212.451331209027
 21
891.801857649405
 31
0.0
  0
LINE
  5
1580
330
1F
100
AcDbEntity
  8
STR
100
AcDbLine
 10
1237.608263005324
 20
751.801857649405
 30
0.0
 11
1384.667086505324
 21
751.801857649405
 31
0.0
  0
LINE
  5
161B
330
1F
100
AcDbEntity
  8
STR
100
AcDbLine
 10
3641.762674755325
 20
7407.897575358271
 30
0.0
 11
4143.099198660392
 21
7407.897575358271
 31
0.0
  0
LINE
  5
161C
330
1F
100
AcDbEntity
  8
STR
100
AcDbLine
 10
3641.849198660391
 20
4947.897575358271
 30
0.0
 11
4143.099198660391
 21
4947.897575358271
 31
0.0
  0
LINE
  5
161D
330
1F
100
AcDbEntity
  8
STR
100
AcDbLine
 10
4141.849198660392
 20
7357.897575358271
 30
0.0
 11
4141.84919866039
 21
4997.897575358271
 31
0.0
  0
TEXT
  5
1621
330
1F
100
AcDbEntity
  8
STR
100
AcDbText
 10
4111.84919866039
 20
6002.897575358272
 30
0.0
 40
60.0
  1
MAX2460
 50
90.0
100
AcDbText
  0
LINE
  5
1622
330
1F
100
AcDbEntity
  8
STR
100
AcDbLine
 10
1111.137674755325
 20
4917.272575358271
 30
0.0
 11
1111.137674755325
 21
4416.647575358271
 31
0.0
  0
LINE
  5
1623
330
1F
100
AcDbEntity
  8
STR
100
AcDbLine
 10
3611.137674755326
 20
4917.272575358271
 30
0.0
 11
3611.137674755326
 21
4416.647575358271
 31
0.0
  0
LINE
  5
1624
330
1F
100
AcDbEntity
  8
STR
100
AcDbLine
 10
1161.137674755325
 20
4417.897575358271
 30
0.0
 11
3561.137674755325
 21
4417.897575358271
 31
0.0
  0
TEXT
  5
1628
330
1F
100
AcDbEntity
  8
STR
100
AcDbText
 10
2191.137674755325
 20
4447.897575358271
 30
0.0
 40
60.0
  1
MAX2500
100
AcDbText
  0
TEXT
  5
1629
330
1F
100
AcDbEntity
  8
STR
100
AcDbText
 10
2191.137674755325
 20
4537.897575358271
 30
0.0
 40
60.0
  1
MIN1700
100
AcDbText
  0
TEXT
  5
162A
330
1F
100
AcDbEntity
  8
STR
100
AcDbText
 10
4021.849198660389
 20
6002.897575358272
 30
0.0
 40
60.0
  1
MIN1660
 50
90.0
100
AcDbText
  0
TEXT
  5
1634
330
1F
100
AcDbEntity
  8
STR
100
AcDbText
 10
1476.121070601365
 20
7973.269256555075
 30
0.0
 40
60.0
  1
ベビーモールKYT-408削進台据付図
100
AcDbText
  0
TEXT
  5
1688
330
1F
100
AcDbEntity
  8
STR
100
AcDbText
 10
2978.327458439552
 20
8198.398152867749
 30
0.0
 40
30.0
  1
（寸法の比率は正確です。倍率を合わせて使用してください。）
100
AcDbText
  0
TEXT
  5
1689
330
1F
100
AcDbEntity
  8
STR
100
AcDbText
 10
2700.232469950458
 20
8606.27146231044
 30
0.0
 40
30.0
  1
-ベビーモール-
100
AcDbText
  0
LINE
  5
168A
330
1F
100
AcDbEntity
  8
STR
100
AcDbLine
 10
2475.543555064026
 20
6029.000516564522
 30
0.0
 11
2475.543555064026
 21
6326.794634152022
 31
0.0
  0
LINE
  5
168B
330
1F
100
AcDbEntity
  8
STR
100
AcDbLine
 10
2475.543555064027
 20
6426.059340014521
 30
0.0
 11
2475.543555064028
 21
6574.956398808271
 31
0.0
  0
LINE
  5
1696
330
1F
100
AcDbEntity
  8
STR
100
AcDbLine
 10
1324.918555064027
 20
6067.897575358269
 30
0.0
 11
1128.918555064029
 21
6067.897575358269
 31
0.0
  0
LINE
  5
1697
330
1F
100
AcDbEntity
  8
STR
100
AcDbLine
 10
1324.918555064027
 20
6287.89757535827
 30
0.0
 11
1128.918555064029
 21
6287.89757535827
 31
0.0
  0
LINE
  5
1698
330
1F
100
AcDbEntity
  8
STR
100
AcDbLine
 10
1504.918555064027
 20
6257.897575358271
 30
0.0
 11
1324.918555064027
 21
6257.897575358268
 31
0.0
  0
LINE
  5
1699
330
1F
100
AcDbEntity
  8
STR
100
AcDbLine
 10
1504.918555064027
 20
6097.89757535827
 30
0.0
 11
1324.918555064027
 21
6097.897575358267
 31
0.0
  0
LINE
  5
169C
330
1F
100
AcDbEntity
  8
STR
100
AcDbLine
 10
1128.918555064029
 20
6067.897575358269
 30
0.0
 11
1128.918555064028
 21
6287.897575358269
 31
0.0
  0
LINE
  5
169D
330
1F
100
AcDbEntity
  8
STR
100
AcDbLine
 10
1324.918555064027
 20
6067.897575358269
 30
0.0
 11
1324.918555064027
 21
6287.897575358271
 31
0.0
  0
LINE
  5
1707
330
1F
100
AcDbEntity
  8
STR
  6
BYBLOCK
 62
     0
100
AcDbLine
 10
3561.137674755325
 20
4431.295034858271
 30
0.0
 11
3611.137674755326
 21
4417.897575358271
 31
0.0
  0
LINE
  5
1708
330
1F
100
AcDbEntity
  8
STR
  6
BYBLOCK
 62
     0
100
AcDbLine
 10
3611.137674755326
 20
4417.897575358271
 30
0.0
 11
3561.137674755325
 21
4404.500115858271
 31
0.0
  0
LINE
  5
1709
330
1F
100
AcDbEntity
  8
STR
  6
BYBLOCK
 62
     0
100
AcDbLine
 10
3611.137674755326
 20
4417.897575358271
 30
0.0
 11
3561.137674755325
 21
4417.897575358271
 31
0.0
  0
LINE
  5
170A
330
1F
100
AcDbEntity
  8
STR
  6
BYBLOCK
 62
     0
100
AcDbLine
 10
1161.137674755325
 20
4404.500115858271
 30
0.0
 11
1111.137674755325
 21
4417.897575358271
 31
0.0
  0
LINE
  5
170B
330
1F
100
AcDbEntity
  8
STR
  6
BYBLOCK
 62
     0
100
AcDbLine
 10
1111.137674755325
 20
4417.897575358271
 30
0.0
 11
1161.137674755325
 21
4431.295034858271
 31
0.0
  0
LINE
  5
170C
330
1F
100
AcDbEntity
  8
STR
  6
BYBLOCK
 62
     0
100
AcDbLine
 10
1111.137674755325
 20
4417.897575358271
 30
0.0
 11
1161.137674755325
 21
4417.897575358271
 31
0.0
  0
LINE
  5
170D
330
1F
100
AcDbEntity
  8
STR
  6
BYBLOCK
 62
     0
100
AcDbLine
 10
4155.246658160391
 20
4997.897575358271
 30
0.0
 11
4141.84919866039
 21
4947.897575358271
 31
0.0
  0
LINE
  5
170E
330
1F
100
AcDbEntity
  8
STR
  6
BYBLOCK
 62
     0
100
AcDbLine
 10
4141.84919866039
 20
4947.897575358271
 30
0.0
 11
4128.451739160391
 21
4997.897575358271
 31
0.0
  0
LINE
  5
170F
330
1F
100
AcDbEntity
  8
STR
  6
BYBLOCK
 62
     0
100
AcDbLine
 10
4141.84919866039
 20
4947.897575358271
 30
0.0
 11
4141.84919866039
 21
4997.897575358271
 31
0.0
  0
LINE
  5
1710
330
1F
100
AcDbEntity
  8
STR
  6
BYBLOCK
 62
     0
100
AcDbLine
 10
4128.451739160392
 20
7357.897575358271
 30
0.0
 11
4141.849198660392
 21
7407.897575358271
 31
0.0
  0
LINE
  5
1711
330
1F
100
AcDbEntity
  8
STR
  6
BYBLOCK
 62
     0
100
AcDbLine
 10
4141.849198660392
 20
7407.897575358271
 30
0.0
 11
4155.246658160392
 21
7357.897575358271
 31
0.0
  0
LINE
  5
1712
330
1F
100
AcDbEntity
  8
STR
  6
BYBLOCK
 62
     0
100
AcDbLine
 10
4141.849198660392
 20
7407.897575358271
 30
0.0
 11
4141.849198660392
 21
7357.897575358271
 31
0.0
  0
LINE
  5
1713
330
1F
100
AcDbEntity
  8
STR
100
AcDbLine
 10
2104.918555064027
 20
1603.176425041257
 30
0.0
 11
2104.918555064027
 21
1603.801425041257
 31
0.0
  0
LINE
  5
1714
330
1F
100
AcDbEntity
  8
STR
100
AcDbLine
 10
1504.918555064027
 20
1603.176425041257
 30
0.0
 11
1504.918555064027
 21
1603.801425041257
 31
0.0
  0
LINE
  5
1715
330
1F
100
AcDbEntity
  8
STR
100
AcDbLine
 10
2054.918555064027
 20
1602.551425041258
 30
0.0
 11
1554.918555064027
 21
1602.551425041258
 31
0.0
  0
LINE
  5
1718
330
1F
100
AcDbEntity
  8
STR
100
AcDbLine
 10
2328.918555064028
 20
3252.426857649405
 30
0.0
 11
2328.918555064028
 21
3474.67773576215
 31
0.0
  0
LINE
  5
1719
330
1F
100
AcDbEntity
  8
STR
100
AcDbLine
 10
1128.918555064028
 20
3252.426857649405
 30
0.0
 11
1128.918555064028
 21
3474.67773576215
 31
0.0
  0
LINE
  5
171A
330
1F
100
AcDbEntity
  8
STR
100
AcDbLine
 10
2278.918555064028
 20
3473.42773576215
 30
0.0
 11
1178.918555064028
 21
3473.42773576215
 31
0.0
  0
LINE
  5
171E
330
1F
100
AcDbEntity
  8
STR
100
AcDbLine
 10
2328.918555064028
 20
1991.155805936686
 30
0.0
 11
2328.918555064028
 21
1991.780805936686
 31
0.0
  0
LINE
  5
171F
330
1F
100
AcDbEntity
  8
STR
100
AcDbLine
 10
1804.918555064028
 20
1991.155805936686
 30
0.0
 11
1804.918555064028
 21
1991.780805936686
 31
0.0
  0
LINE
  5
1720
330
1F
100
AcDbEntity
  8
STR
100
AcDbLine
 10
2278.918555064028
 20
1990.530805936686
 30
0.0
 11
1854.918555064028
 21
1990.530805936686
 31
0.0
  0
LINE
  5
1724
330
1F
100
AcDbEntity
  8
STR
100
AcDbLine
 10
2169.918555064028
 20
1703.847137216043
 30
0.0
 11
2169.918555064028
 21
1705.097137216043
 31
0.0
  0
LINE
  5
1725
330
1F
100
AcDbEntity
  8
STR
100
AcDbLine
 10
2328.918555064027
 20
1703.847137216043
 30
0.0
 11
2328.918555064027
 21
1705.097137216043
 31
0.0
  0
LINE
  5
1726
330
1F
100
AcDbEntity
  8
STR
100
AcDbLine
 10
2119.918555064028
 20
1703.847137216043
 30
0.0
 11
2069.918555064028
 21
1703.847137216043
 31
0.0
  0
LINE
  5
1727
330
1F
100
AcDbEntity
  8
STR
100
AcDbLine
 10
2378.918555064027
 20
1703.847137216043
 30
0.0
 11
2428.918555064027
 21
1703.847137216043
 31
0.0
  0
LINE
  5
1728
330
1F
100
AcDbEntity
  8
STR
100
AcDbLine
 10
2169.918555064028
 20
1703.847137216043
 30
0.0
 11
2328.918555064027
 21
1703.847137216043
 31
0.0
  0
LINE
  5
172C
330
1F
100
AcDbEntity
  8
STR
100
AcDbLine
 10
3559.213447822758
 20
721.801857649405
 30
0.0
 11
3774.948810950098
 21
721.801857649405
 31
0.0
  0
LINE
  5
172D
330
1F
100
AcDbEntity
  8
STR
100
AcDbLine
 10
3559.213447822758
 20
921.8018576494051
 30
0.0
 11
3774.948810950098
 21
921.8018576494051
 31
0.0
  0
LINE
  5
172E
330
1F
100
AcDbEntity
  8
STR
100
AcDbLine
 10
3773.698810950098
 20
771.801857649405
 30
0.0
 11
3773.698810950098
 21
871.8018576494051
 31
0.0
  0
LINE
  5
172F
330
1F
100
AcDbEntity
  8
STR
100
AcDbLine
 10
3773.698810950098
 20
921.8018576494051
 30
0.0
 11
3773.698810950098
 21
1171.801857649405
 31
0.0
  0
LINE
  5
1733
330
1F
100
AcDbEntity
  8
STR
100
AcDbLine
 10
2667.411236627698
 20
3221.801857649406
 30
0.0
 11
3930.422712359817
 21
3221.801857649405
 31
0.0
  0
LINE
  5
1734
330
1F
100
AcDbEntity
  8
STR
100
AcDbLine
 10
3559.213447822758
 20
721.801857649405
 30
0.0
 11
3930.422712359817
 21
721.8018576494049
 31
0.0
  0
LINE
  5
1735
330
1F
100
AcDbEntity
  8
STR
100
AcDbLine
 10
3929.172712359818
 20
3171.801857649406
 30
0.0
 11
3929.172712359816
 21
771.8018576494049
 31
0.0
  0
TEXT
  5
1739
330
1F
100
AcDbEntity
  8
STR
100
AcDbText
 10
3899.172712359817
 20
1781.801857649406
 30
0.0
 40
60.0
  1
MAX2500
 50
90.0
100
AcDbText
  0
LINE
  5
173A
330
1F
100
AcDbEntity
  8
STR
  6
BYBLOCK
 62
     0
100
AcDbLine
 10
3942.570171859816
 20
771.8018576494049
 30
0.0
 11
3929.172712359816
 21
721.8018576494049
 31
0.0
  0
LINE
  5
173B
330
1F
100
AcDbEntity
  8
STR
  6
BYBLOCK
 62
     0
100
AcDbLine
 10
3929.172712359816
 20
721.8018576494049
 30
0.0
 11
3915.775252859816
 21
771.8018576494049
 31
0.0
  0
LINE
  5
173C
330
1F
100
AcDbEntity
  8
STR
  6
BYBLOCK
 62
     0
100
AcDbLine
 10
3929.172712359816
 20
721.8018576494049
 30
0.0
 11
3929.172712359816
 21
771.8018576494049
 31
0.0
  0
LINE
  5
173D
330
1F
100
AcDbEntity
  8
STR
  6
BYBLOCK
 62
     0
100
AcDbLine
 10
3915.775252859817
 20
3171.801857649406
 30
0.0
 11
3929.172712359818
 21
3221.801857649405
 31
0.0
  0
LINE
  5
173E
330
1F
100
AcDbEntity
  8
STR
  6
BYBLOCK
 62
     0
100
AcDbLine
 10
3929.172712359818
 20
3221.801857649405
 30
0.0
 11
3942.570171859817
 21
3171.801857649406
 31
0.0
  0
LINE
  5
173F
330
1F
100
AcDbEntity
  8
STR
  6
BYBLOCK
 62
     0
100
AcDbLine
 10
3929.172712359818
 20
3221.801857649405
 30
0.0
 11
3929.172712359818
 21
3171.801857649406
 31
0.0
  0
TEXT
  5
1740
330
1F
100
AcDbEntity
  8
STR
100
AcDbText
 10
3743.698810950098
 20
1001.801857649405
 30
0.0
 40
60.0
  1
200
 50
90.0
100
AcDbText
  0
LINE
  5
1741
330
1F
100
AcDbEntity
  8
STR
  6
BYBLOCK
 62
     0
100
AcDbLine
 10
3760.301351450098
 20
871.8018576494051
 30
0.0
 11
3773.698810950098
 21
921.8018576494051
 31
0.0
  0
LINE
  5
1742
330
1F
100
AcDbEntity
  8
STR
  6
BYBLOCK
 62
     0
100
AcDbLine
 10
3773.698810950098
 20
921.8018576494051
 30
0.0
 11
3787.096270450098
 21
871.8018576494051
 31
0.0
  0
LINE
  5
1743
330
1F
100
AcDbEntity
  8
STR
  6
BYBLOCK
 62
     0
100
AcDbLine
 10
3773.698810950098
 20
921.8018576494051
 30
0.0
 11
3773.698810950098
 21
871.8018576494051
 31
0.0
  0
LINE
  5
1744
330
1F
100
AcDbEntity
  8
STR
  6
BYBLOCK
 62
     0
100
AcDbLine
 10
3787.096270450098
 20
771.801857649405
 30
0.0
 11
3773.698810950098
 21
721.801857649405
 31
0.0
  0
LINE
  5
1745
330
1F
100
AcDbEntity
  8
STR
  6
BYBLOCK
 62
     0
100
AcDbLine
 10
3773.698810950098
 20
721.801857649405
 30
0.0
 11
3760.301351450098
 21
771.801857649405
 31
0.0
  0
LINE
  5
1746
330
1F
100
AcDbEntity
  8
STR
  6
BYBLOCK
 62
     0
100
AcDbLine
 10
3773.698810950098
 20
721.801857649405
 30
0.0
 11
3773.698810950098
 21
771.801857649405
 31
0.0
  0
TEXT
  5
1747
330
1F
100
AcDbEntity
  8
STR
100
AcDbText
 10
2179.418555064028
 20
1733.847137216043
 30
0.0
 40
60.0
  1
159
100
AcDbText
  0
LINE
  5
1748
330
1F
100
AcDbEntity
  8
STR
  6
BYBLOCK
 62
     0
100
AcDbLine
 10
2378.918555064027
 20
1690.449677716042
 30
0.0
 11
2328.918555064027
 21
1703.847137216043
 31
0.0
  0
LINE
  5
1749
330
1F
100
AcDbEntity
  8
STR
  6
BYBLOCK
 62
     0
100
AcDbLine
 10
2328.918555064027
 20
1703.847137216043
 30
0.0
 11
2378.918555064027
 21
1717.244596716042
 31
0.0
  0
LINE
  5
174A
330
1F
100
AcDbEntity
  8
STR
  6
BYBLOCK
 62
     0
100
AcDbLine
 10
2328.918555064027
 20
1703.847137216043
 30
0.0
 11
2378.918555064027
 21
1703.847137216043
 31
0.0
  0
LINE
  5
174B
330
1F
100
AcDbEntity
  8
STR
  6
BYBLOCK
 62
     0
100
AcDbLine
 10
2119.918555064028
 20
1717.244596716042
 30
0.0
 11
2169.918555064028
 21
1703.847137216043
 31
0.0
  0
LINE
  5
174C
330
1F
100
AcDbEntity
  8
STR
  6
BYBLOCK
 62
     0
100
AcDbLine
 10
2169.918555064028
 20
1703.847137216043
 30
0.0
 11
2119.918555064028
 21
1690.449677716042
 31
0.0
  0
LINE
  5
174D
330
1F
100
AcDbEntity
  8
STR
  6
BYBLOCK
 62
     0
100
AcDbLine
 10
2169.918555064028
 20
1703.847137216043
 30
0.0
 11
2119.918555064028
 21
1703.847137216043
 31
0.0
  0
TEXT
  5
174E
330
1F
100
AcDbEntity
  8
STR
100
AcDbText
 10
1986.918555064028
 20
2020.530805936686
 30
0.0
 40
60.0
  1
524
100
AcDbText
  0
LINE
  5
174F
330
1F
100
AcDbEntity
  8
STR
  6
BYBLOCK
 62
     0
100
AcDbLine
 10
1854.918555064028
 20
1977.133346436686
 30
0.0
 11
1804.918555064028
 21
1990.530805936686
 31
0.0
  0
LINE
  5
1750
330
1F
100
AcDbEntity
  8
STR
  6
BYBLOCK
 62
     0
100
AcDbLine
 10
1804.918555064028
 20
1990.530805936686
 30
0.0
 11
1854.918555064028
 21
2003.928265436686
 31
0.0
  0
LINE
  5
1751
330
1F
100
AcDbEntity
  8
STR
  6
BYBLOCK
 62
     0
100
AcDbLine
 10
1804.918555064028
 20
1990.530805936686
 30
0.0
 11
1854.918555064028
 21
1990.530805936686
 31
0.0
  0
LINE
  5
1752
330
1F
100
AcDbEntity
  8
STR
  6
BYBLOCK
 62
     0
100
AcDbLine
 10
2278.918555064028
 20
2003.928265436686
 30
0.0
 11
2328.918555064028
 21
1990.530805936686
 31
0.0
  0
LINE
  5
1753
330
1F
100
AcDbEntity
  8
STR
  6
BYBLOCK
 62
     0
100
AcDbLine
 10
2328.918555064028
 20
1990.530805936686
 30
0.0
 11
2278.918555064028
 21
1977.133346436686
 31
0.0
  0
LINE
  5
1754
330
1F
100
AcDbEntity
  8
STR
  6
BYBLOCK
 62
     0
100
AcDbLine
 10
2328.918555064028
 20
1990.530805936686
 30
0.0
 11
2278.918555064028
 21
1990.530805936686
 31
0.0
  0
TEXT
  5
1755
330
1F
100
AcDbEntity
  8
STR
100
AcDbText
 10
1742.841603518161
 20
3503.42773576215
 30
0.0
 40
60.0
  1
1200
100
AcDbText
  0
LINE
  5
1756
330
1F
100
AcDbEntity
  8
STR
  6
BYBLOCK
 62
     0
100
AcDbLine
 10
1178.918555064028
 20
3460.03027626215
 30
0.0
 11
1128.918555064028
 21
3473.42773576215
 31
0.0
  0
LINE
  5
1757
330
1F
100
AcDbEntity
  8
STR
  6
BYBLOCK
 62
     0
100
AcDbLine
 10
1128.918555064028
 20
3473.42773576215
 30
0.0
 11
1178.918555064028
 21
3486.82519526215
 31
0.0
  0
LINE
  5
1758
330
1F
100
AcDbEntity
  8
STR
  6
BYBLOCK
 62
     0
100
AcDbLine
 10
1128.918555064028
 20
3473.42773576215
 30
0.0
 11
1178.918555064028
 21
3473.42773576215
 31
0.0
  0
LINE
  5
1759
330
1F
100
AcDbEntity
  8
STR
  6
BYBLOCK
 62
     0
100
AcDbLine
 10
2278.918555064028
 20
3486.82519526215
 30
0.0
 11
2328.918555064028
 21
3473.42773576215
 31
0.0
  0
LINE
  5
175A
330
1F
100
AcDbEntity
  8
STR
  6
BYBLOCK
 62
     0
100
AcDbLine
 10
2328.918555064028
 20
3473.42773576215
 30
0.0
 11
2278.918555064028
 21
3460.03027626215
 31
0.0
  0
LINE
  5
175B
330
1F
100
AcDbEntity
  8
STR
  6
BYBLOCK
 62
     0
100
AcDbLine
 10
2328.918555064028
 20
3473.42773576215
 30
0.0
 11
2278.918555064028
 21
3473.42773576215
 31
0.0
  0
LINE
  5
175C
330
1F
100
AcDbEntity
  8
STR
  6
BYBLOCK
 62
     0
100
AcDbLine
 10
1554.918555064027
 20
1589.153965541258
 30
0.0
 11
1504.918555064027
 21
1602.551425041258
 31
0.0
  0
LINE
  5
175D
330
1F
100
AcDbEntity
  8
STR
  6
BYBLOCK
 62
     0
100
AcDbLine
 10
1504.918555064027
 20
1602.551425041258
 30
0.0
 11
1554.918555064027
 21
1615.948884541257
 31
0.0
  0
LINE
  5
175E
330
1F
100
AcDbEntity
  8
STR
  6
BYBLOCK
 62
     0
100
AcDbLine
 10
1504.918555064027
 20
1602.551425041258
 30
0.0
 11
1554.918555064027
 21
1602.551425041258
 31
0.0
  0
LINE
  5
175F
330
1F
100
AcDbEntity
  8
STR
  6
BYBLOCK
 62
     0
100
AcDbLine
 10
2054.918555064027
 20
1615.948884541257
 30
0.0
 11
2104.918555064027
 21
1602.551425041258
 31
0.0
  0
LINE
  5
1760
330
1F
100
AcDbEntity
  8
STR
  6
BYBLOCK
 62
     0
100
AcDbLine
 10
2104.918555064027
 20
1602.551425041258
 30
0.0
 11
2054.918555064027
 21
1589.153965541258
 31
0.0
  0
LINE
  5
1761
330
1F
100
AcDbEntity
  8
STR
  6
BYBLOCK
 62
     0
100
AcDbLine
 10
2104.918555064027
 20
1602.551425041258
 30
0.0
 11
2054.918555064027
 21
1602.551425041258
 31
0.0
  0
VIEWPORT
  5
166A
102
{ACAD_XDICTIONARY
360
16BA
102
}
330
1663
100
AcDbEntity
 67
     1
  8
0
100
AcDbViewport
 10
99.11291408538819
 20
142.5680856704711
 30
0.0
 40
405.3284468049269
 41
314.1924854736328
 68
     1
 69
     1
1001
ACAD
1000
MVIEW
1002
{
1070
    16
1010
0.0
1020
0.0
1030
0.0
1010
0.0
1020
0.0
1030
1.0
1040
0.0
1040
314.1924854736328
1040
99.11291408538819
1040
142.5680856704711
1040
50.0
1040
0.0
1040
0.0
1070
     0
1070
  1000
1070
     1
1070
     1
1070
     0
1070
     0
1070
     0
1070
     0
1040
0.0
1040
0.0
1040
0.0
1040
10.0
1040
10.0
1040
10.0
1040
10.0
1070
     0
1002
{
1002
}
1002
}
  0
VIEWPORT
  5
166C
102
{ACAD_XDICTIONARY
360
16BC
102
}
330
1663
100
AcDbEntity
 67
     1
  8
STR
100
AcDbViewport
 10
98.86146992169877
 20
142.3167316089838
 30
0.0
 40
209.201779768016
 41
292.07333508405
 68
     2
 69
     2
1001
ACAD
1000
MVIEW
1002
{
1070
    16
1010
0.0
1020
0.0
1030
0.0
1010
0.0
1020
0.0
1030
1.0
1040
0.0
1040
8762.200052521501
1040
2599.094543828408
1040
4436.148288887449
1040
50.0
1040
0.0
1040
0.0
1070
     0
1070
  1000
1070
     1
1070
     3
1070
     0
1070
     0
1070
     0
1070
     0
1040
0.0
1040
0.0
1040
0.0
1040
10.0
1040
10.0
1040
10.0
1040
10.0
1070
     0
1002
{
1002
}
1002
}
  0
ENDSEC
  0
SECTION
  2
OBJECTS
  0
DICTIONARY
  5
C
330
0
100
AcDbDictionary
  3
ACAD_COLOR
350
6B
  3
ACAD_GROUP
350
D
  3
ACAD_LAYOUT
350
1A
  3
ACAD_MATERIAL
350
6A
  3
ACAD_MLINESTYLE
350
17
  3
ACAD_PLOTSETTINGS
350
19
  3
ACAD_PLOTSTYLENAME
350
E
  3
ACDBHEADERROUNDTRIPXREC
350
1763
  3
ACDBVARIABLEDICTIONARY
350
5E
  0
DICTIONARY
  5
16C4
330
1F
100
AcDbDictionary
280
     1
  3
ACAD_LAYOUTSELFREF
360
1784
  0
DICTIONARY
  5
16C6
330
1663
100
AcDbDictionary
280
     1
  3
ACAD_LAYOUTSELFREF
360
1785
  0
DICTIONARY
  5
16BA
330
166A
100
AcDbDictionary
280
     1
  3
ACAD_XREC_ROUNDTRIP
360
16BB
  0
DICTIONARY
  5
16BC
330
166C
100
AcDbDictionary
280
     1
  3
ACAD_XREC_ROUNDTRIP
360
16BD
  0
DICTIONARY
  5
6B
102
{ACAD_REACTORS
330
C
102
}
330
C
100
AcDbDictionary
  0
DICTIONARY
  5
D
102
{ACAD_REACTORS
330
C
102
}
330
C
100
AcDbDictionary
  0
DICTIONARY
  5
1A
102
{ACAD_REACTORS
330
C
102
}
330
C
100
AcDbDictionary
  0
DICTIONARY
  5
6A
102
{ACAD_REACTORS
330
C
102
}
330
C
100
AcDbDictionary
  0
DICTIONARY
  5
17
102
{ACAD_REACTORS
330
C
102
}
330
C
100
AcDbDictionary
  3
STANDARD
350
18
  0
DICTIONARY
  5
19
102
{ACAD_REACTORS
330
C
102
}
330
C
100
AcDbDictionary
  0
ACDBDICTIONARYWDFLT
  5
E
102
{ACAD_REACTORS
330
C
102
}
330
C
100
AcDbDictionary
281
     1
  3
Normal
350
F
100
AcDbDictionaryWithDefault
340
F
  0
DICTIONARY
  5
1763
102
{ACAD_REACTORS
330
C
102
}
330
C
100
AcDbDictionary
  3
CEPSNTYPE
350
176D
  3
DIMSTYLEDATA
350
1771
  3
FINGERPRINTGUID
350
176E
  3
HYPERLINKBASE
350
1766
  3
INSUNITS
350
176C
  3
LAYOUTDICT
350
1768
  3
LWETCUNION
350
176B
  3
PLOTSETDICT
350
1769
  3
PLOTSTYLNAMDICT
350
176A
  3
PSVPSCALE
350
1770
  3
PUCSBASE
350
1774
  3
PUCSORGBACK
350
177A
  3
PUCSORGBOTTOM
350
1776
  3
PUCSORGFRONT
350
1779
  3
PUCSORGLEFT
350
1777
  3
PUCSORGRIGHT
350
1778
  3
PUCSORGTOP
350
1775
  3
PUCSORTHOREF
350
1772
  3
PUCSORTHOVIEW
350
1773
  3
STYLESHEET
350
1767
  3
TSTACKALIGN
350
1764
  3
TSTACKSIZE
350
1765
  3
UCSBASE
350
177D
  3
UCSORGBACK
350
1783
  3
UCSORGBOTTOM
350
177F
  3
UCSORGFRONT
350
1782
  3
UCSORGLEFT
350
1780
  3
UCSORGRIGHT
350
1781
  3
UCSORGTOP
350
177E
  3
UCSORTHOREF
350
177B
  3
UCSORTHOVIEW
350
177C
  3
VERSIONGUID
350
176F
  0
DICTIONARY
  5
5E
102
{ACAD_REACTORS
330
C
102
}
330
C
100
AcDbDictionary
  3
DIMASSOC
350
5F
  3
HIDETEXT
350
63
  3
PROJECTNAME
350
16BE
  0
XRECORD
  5
1784
102
{ACAD_REACTORS
330
16C4
102
}
330
16C4
100
AcDbXrecord
340
1F
  0
XRECORD
  5
1785
102
{ACAD_REACTORS
330
16C6
102
}
330
16C6
100
AcDbXrecord
340
1663
  0
XRECORD
  5
16BB
102
{ACAD_REACTORS
330
16BA
102
}
330
16BA
100
AcDbXrecord
102
SHADEPLOT
 70
     0
  0
XRECORD
  5
16BD
102
{ACAD_REACTORS
330
16BC
102
}
330
16BC
100
AcDbXrecord
102
SHADEPLOT
 70
     0
  0
MLINESTYLE
  5
18
102
{ACAD_REACTORS
330
17
102
}
330
17
100
AcDbMlineStyle
  2
STANDARD
 70
     0
  3

 62
   256
 51
90.0
 52
90.0
 71
     2
 49
0.5
 62
   256
  6
BYLAYER
 49
-0.5
 62
   256
  6
BYLAYER
  0
ACDBPLACEHOLDER
  5
F
102
{ACAD_REACTORS
330
E
102
}
330
E
100
AcDbPlaceHolder
280
     0
  0
XRECORD
  5
176D
102
{ACAD_REACTORS
330
1763
102
}
330
1763
100
AcDbXrecord
 90
        0
  0
XRECORD
  5
1771
102
{ACAD_REACTORS
330
1763
102
}
330
1763
100
AcDbXrecord
1000
DSTYLE
1002
{
1070
   278
 70
    44
1070
   289
 70
     2
1070
   341
340
100
1070
   342
340
FA
1002
}
  0
XRECORD
  5
176E
102
{ACAD_REACTORS
330
1763
102
}
330
1763
100
AcDbXrecord
  1
{FDEAD578-A652-11D2-9A35-0060089B3A3F}
  0
XRECORD
  5
1766
102
{ACAD_REACTORS
330
1763
102
}
330
1763
100
AcDbXrecord
  1

  0
XRECORD
  5
176C
102
{ACAD_REACTORS
330
1763
102
}
330
1763
100
AcDbXrecord
 90
        4
  0
XRECORD
  5
1768
102
{ACAD_REACTORS
330
1763
102
}
330
1763
100
AcDbXrecord
340
1A
  0
XRECORD
  5
176B
102
{ACAD_REACTORS
330
1763
102
}
330
1763
100
AcDbXrecord
 90
    10781
  0
XRECORD
  5
1769
102
{ACAD_REACTORS
330
1763
102
}
330
1763
100
AcDbXrecord
340
19
  0
XRECORD
  5
176A
102
{ACAD_REACTORS
330
1763
102
}
330
1763
100
AcDbXrecord
340
E
  0
XRECORD
  5
1770
102
{ACAD_REACTORS
330
1763
102
}
330
1763
100
AcDbXrecord
 40
0.0
  0
XRECORD
  5
1774
102
{ACAD_REACTORS
330
1763
102
}
330
1763
100
AcDbXrecord
340
0
  0
XRECORD
  5
177A
102
{ACAD_REACTORS
330
1763
102
}
330
1763
100
AcDbXrecord
 10
0.0
 20
0.0
 30
0.0
  0
XRECORD
  5
1776
102
{ACAD_REACTORS
330
1763
102
}
330
1763
100
AcDbXrecord
 10
0.0
 20
0.0
 30
0.0
  0
XRECORD
  5
1779
102
{ACAD_REACTORS
330
1763
102
}
330
1763
100
AcDbXrecord
 10
0.0
 20
0.0
 30
0.0
  0
XRECORD
  5
1777
102
{ACAD_REACTORS
330
1763
102
}
330
1763
100
AcDbXrecord
 10
0.0
 20
0.0
 30
0.0
  0
XRECORD
  5
1778
102
{ACAD_REACTORS
330
1763
102
}
330
1763
100
AcDbXrecord
 10
0.0
 20
0.0
 30
0.0
  0
XRECORD
  5
1775
102
{ACAD_REACTORS
330
1763
102
}
330
1763
100
AcDbXrecord
 10
0.0
 20
0.0
 30
0.0
  0
XRECORD
  5
1772
102
{ACAD_REACTORS
330
1763
102
}
330
1763
100
AcDbXrecord
340
0
  0
XRECORD
  5
1773
102
{ACAD_REACTORS
330
1763
102
}
330
1763
100
AcDbXrecord
 70
     0
  0
XRECORD
  5
1767
102
{ACAD_REACTORS
330
1763
102
}
330
1763
100
AcDbXrecord
  1

  0
XRECORD
  5
1764
102
{ACAD_REACTORS
330
1763
102
}
330
1763
100
AcDbXrecord
 90
        1
  0
XRECORD
  5
1765
102
{ACAD_REACTORS
330
1763
102
}
330
1763
100
AcDbXrecord
 90
       70
  0
XRECORD
  5
177D
102
{ACAD_REACTORS
330
1763
102
}
330
1763
100
AcDbXrecord
340
0
  0
XRECORD
  5
1783
102
{ACAD_REACTORS
330
1763
102
}
330
1763
100
AcDbXrecord
 10
0.0
 20
0.0
 30
0.0
  0
XRECORD
  5
177F
102
{ACAD_REACTORS
330
1763
102
}
330
1763
100
AcDbXrecord
 10
0.0
 20
0.0
 30
0.0
  0
XRECORD
  5
1782
102
{ACAD_REACTORS
330
1763
102
}
330
1763
100
AcDbXrecord
 10
0.0
 20
0.0
 30
0.0
  0
XRECORD
  5
1780
102
{ACAD_REACTORS
330
1763
102
}
330
1763
100
AcDbXrecord
 10
0.0
 20
0.0
 30
0.0
  0
XRECORD
  5
1781
102
{ACAD_REACTORS
330
1763
102
}
330
1763
100
AcDbXrecord
 10
0.0
 20
0.0
 30
0.0
  0
XRECORD
  5
177E
102
{ACAD_REACTORS
330
1763
102
}
330
1763
100
AcDbXrecord
 10
0.0
 20
0.0
 30
0.0
  0
XRECORD
  5
177B
102
{ACAD_REACTORS
330
1763
102
}
330
1763
100
AcDbXrecord
340
0
  0
XRECORD
  5
177C
102
{ACAD_REACTORS
330
1763
102
}
330
1763
100
AcDbXrecord
 70
     0
  0
XRECORD
  5
176F
102
{ACAD_REACTORS
330
1763
102
}
330
1763
100
AcDbXrecord
  1
{08BCF19E-435F-4EC9-895C-3D9E815AECD5}
  0
DICTIONARYVAR
  5
5F
102
{ACAD_REACTORS
330
5E
102
}
330
5E
100
DictionaryVariables
280
     0
  1
2
  0
DICTIONARYVAR
  5
63
102
{ACAD_REACTORS
330
5E
102
}
330
5E
100
DictionaryVariables
280
     0
  1
1
  0
DICTIONARYVAR
  5
16BE
102
{ACAD_REACTORS
330
5E
102
}
330
5E
100
DictionaryVariables
280
     0
  1

  0
ENDSEC
  0
EOF
