  0
SECTION
  2
HEADER
  9
$ACADVER
  1
AC1014
  9
$ACADMAINTVER
 70
     9
  9
$DWGCODEPAGE
  3
ANSI_932
  9
$INSBASE
 10
0.0
 20
0.0
 30
0.0
  9
$EXTMIN
 10
363.7148387572942
 20
551.5453025558906
 30
0.0
  9
$EXTMAX
 10
4461.034264910906
 20
2956.870964962833
 30
0.0
  9
$LIMMIN
 10
0.0
 20
0.0
  9
$LIMMAX
 10
4500.0
 20
3500.0
  9
$ORTHOMODE
 70
     0
  9
$REGENMODE
 70
     1
  9
$FILLMODE
 70
     1
  9
$QTEXTMODE
 70
     0
  9
$MIRRTEXT
 70
     0
  9
$DRAGMODE
 70
     2
  9
$LTSCALE
 40
1.0
  9
$OSMODE
 70
    47
  9
$ATTMODE
 70
     1
  9
$TEXTSIZE
 40
2.5
  9
$TRACEWID
 40
1.0
  9
$TEXTSTYLE
  7
STANDARD
  9
$CLAYER
  8
STR
  9
$CELTYPE
  6
BYLAYER
  9
$CECOLOR
 62
   256
  9
$CELTSCALE
 40
1.0
  9
$DELOBJ
 70
     1
  9
$DISPSILH
 70
     0
  9
$DIMSCALE
 40
1.0
  9
$DIMASZ
 40
20.0
  9
$DIMEXO
 40
0.625
  9
$DIMDLI
 40
3.75
  9
$DIMRND
 40
0.0
  9
$DIMDLE
 40
0.0
  9
$DIMEXE
 40
1.25
  9
$DIMTP
 40
0.0
  9
$DIMTM
 40
0.0
  9
$DIMTXT
 40
30.0
  9
$DIMCEN
 40
2.5
  9
$DIMTSZ
 40
0.0
  9
$DIMTOL
 70
     0
  9
$DIMLIM
 70
     0
  9
$DIMTIH
 70
     0
  9
$DIMTOH
 70
     0
  9
$DIMSE1
 70
     0
  9
$DIMSE2
 70
     0
  9
$DIMTAD
 70
     1
  9
$DIMZIN
 70
     8
  9
$DIMBLK
  1
OPEN30
  9
$DIMASO
 70
     1
  9
$DIMSHO
 70
     1
  9
$DIMPOST
  1

  9
$DIMAPOST
  1

  9
$DIMALT
 70
     0
  9
$DIMALTD
 70
     3
  9
$DIMALTF
 40
0.03937007874016
  9
$DIMLFAC
 40
1.0
  9
$DIMTOFL
 70
     1
  9
$DIMTVP
 40
0.0
  9
$DIMTIX
 70
     0
  9
$DIMSOXD
 70
     0
  9
$DIMSAH
 70
     0
  9
$DIMBLK1
  1

  9
$DIMBLK2
  1

  9
$DIMSTYLE
  2
ISO-25-BRGK
  9
$DIMCLRD
 70
     0
  9
$DIMCLRE
 70
     0
  9
$DIMCLRT
 70
     0
  9
$DIMTFAC
 40
1.0
  9
$DIMGAP
 40
10.0
  9
$DIMJUST
 70
     0
  9
$DIMSD1
 70
     0
  9
$DIMSD2
 70
     0
  9
$DIMTOLJ
 70
     0
  9
$DIMTZIN
 70
     8
  9
$DIMALTZ
 70
     0
  9
$DIMALTTZ
 70
     0
  9
$DIMFIT
 70
     2
  9
$DIMUPT
 70
     0
  9
$DIMUNIT
 70
     2
  9
$DIMDEC
 70
     2
  9
$DIMTDEC
 70
     2
  9
$DIMALTU
 70
     2
  9
$DIMALTTD
 70
     3
  9
$DIMTXSTY
  7
STANDARD
  9
$DIMAUNIT
 70
     0
  9
$LUNITS
 70
     2
  9
$LUPREC
 70
     4
  9
$SKETCHINC
 40
1.0
  9
$FILLETRAD
 40
0.0
  9
$AUNITS
 70
     0
  9
$AUPREC
 70
     0
  9
$MENU
  1
.
  9
$ELEVATION
 40
0.0
  9
$PELEVATION
 40
0.0
  9
$THICKNESS
 40
0.0
  9
$LIMCHECK
 70
     0
  9
$BLIPMODE
 70
     0
  9
$CHAMFERA
 40
10.0
  9
$CHAMFERB
 40
10.0
  9
$CHAMFERC
 40
0.0
  9
$CHAMFERD
 40
0.0
  9
$SKPOLY
 70
     0
  9
$TDCREATE
 40
2453468.462395104
  9
$TDUPDATE
 40
2453472.730734409
  9
$TDINDWG
 40
0.3728477662
  9
$TDUSRTIMER
 40
0.3728475810
  9
$USRTIMER
 70
     1
  9
$ANGBASE
 50
0.0
  9
$ANGDIR
 70
     0
  9
$PDMODE
 70
     0
  9
$PDSIZE
 40
0.0
  9
$PLINEWID
 40
0.0
  9
$COORDS
 70
     1
  9
$SPLFRAME
 70
     0
  9
$SPLINETYPE
 70
     6
  9
$SPLINESEGS
 70
     8
  9
$ATTDIA
 70
     0
  9
$ATTREQ
 70
     1
  9
$HANDLING
 70
 22529
  9
$HANDSEED
  5
D4A
  9
$SURFTAB1
 70
     6
  9
$SURFTAB2
 70
     6
  9
$SURFTYPE
 70
     6
  9
$SURFU
 70
     6
  9
$SURFV
 70
     6
  9
$UCSNAME
  2

  9
$UCSORG
 10
0.0
 20
0.0
 30
0.0
  9
$UCSXDIR
 10
1.0
 20
0.0
 30
0.0
  9
$UCSYDIR
 10
0.0
 20
1.0
 30
0.0
  9
$PUCSNAME
  2

  9
$PUCSORG
 10
0.0
 20
0.0
 30
0.0
  9
$PUCSXDIR
 10
1.0
 20
0.0
 30
0.0
  9
$PUCSYDIR
 10
0.0
 20
1.0
 30
0.0
  9
$USERI1
 70
     0
  9
$USERI2
 70
     0
  9
$USERI3
 70
     0
  9
$USERI4
 70
     0
  9
$USERI5
 70
     0
  9
$USERR1
 40
0.0
  9
$USERR2
 40
0.0
  9
$USERR3
 40
0.0
  9
$USERR4
 40
0.0
  9
$USERR5
 40
0.0
  9
$WORLDVIEW
 70
     1
  9
$SHADEDGE
 70
     3
  9
$SHADEDIF
 70
    70
  9
$TILEMODE
 70
     1
  9
$MAXACTVP
 70
    64
  9
$PINSBASE
 10
0.0
 20
0.0
 30
0.0
  9
$PLIMCHECK
 70
     0
  9
$PEXTMIN
 10
-3.005386446596844
 20
-4.085951438948427
 30
-0.0000000349181948
  9
$PEXTMAX
 10
290.8997254550243
 20
202.5360562978115
 30
0.0000000814935746
  9
$PLIMMIN
 10
-5.873748779296875
 20
-5.873749732971191
  9
$PLIMMAX
 10
291.0945739746093
 20
204.0995779037475
  9
$UNITMODE
 70
     0
  9
$VISRETAIN
 70
     1
  9
$PLINEGEN
 70
     0
  9
$PSLTSCALE
 70
     1
  9
$TREEDEPTH
 70
  3020
  9
$PICKSTYLE
 70
     1
  9
$CMLSTYLE
  2
STANDARD
  9
$CMLJUST
 70
     0
  9
$CMLSCALE
 40
20.0
  9
$PROXYGRAPHICS
 70
     1
  9
$MEASUREMENT
 70
     1
  0
ENDSEC
  0
SECTION
  2
CLASSES
  0
CLASS
  1
ACDBDICTIONARYWDFLT
  2
AcDbDictionaryWithDefault
  3
AutoCAD 2000
 90
        0
280
     0
281
     0
  0
CLASS
  1
ACDBPLACEHOLDER
  2
AcDbPlaceHolder
  3
AutoCAD 2000
 90
        0
280
     0
281
     0
  0
CLASS
  1
LAYOUT
  2
AcDbLayout
  3
AutoCAD 2000
 90
        0
280
     0
281
     0
  0
CLASS
  1
DICTIONARYVAR
  2
AcDbDictionaryVar
  3
AutoCAD 2000
 90
        0
280
     0
281
     0
  0
CLASS
  1
DIMASSOC
  2
AcDbDimAssoc
  3
"AcDbDimAssoc|Product Desc:     AcDim ARX App For Dimension|Company:          Autodesk, Inc.|WEB Address:      www.autodesk.com"
 90
        0
280
     0
281
     0
  0
CLASS
  1
LONG_TRANSACTION
  2
AcDbLongTransaction
  3
AutoCAD 2000
 90
        0
280
     0
281
     0
  0
CLASS
  1
LWPOLYLINE
  2
AcDbPolyline
  3
AutoCAD 2000
 90
        0
280
     0
281
     1
  0
CLASS
  1
HATCH
  2
AcDbHatch
  3
AutoCAD 2000
 90
        0
280
     0
281
     1
  0
CLASS
  1
XRECORD
  2
AcDbXrecord
  3
AutoCAD 2000
 90
        0
280
     0
281
     0
  0
ENDSEC
  0
SECTION
  2
TABLES
  0
TABLE
  2
VPORT
  5
8
330
0
100
AcDbSymbolTable
 70
     3
  0
VPORT
  5
D22
330
8
100
AcDbSymbolTableRecord
100
AcDbViewportTableRecord
  2
*ACTIVE
 70
     0
 10
0.0
 20
0.0
 11
1.0
 21
1.0
 12
2250.0
 22
1752.310867229678
 13
0.0
 23
0.0
 14
10.0
 24
10.0
 15
10.0
 25
10.0
 16
0.0
 26
0.0
 36
1.0
 17
0.0
 27
0.0
 37
0.0
 40
3526.832821074307
 41
1.323651452282157
 42
50.0
 43
0.0
 44
0.0
 50
0.0
 51
0.0
 71
     0
 72
  1000
 73
     1
 74
     3
 75
     0
 76
     0
 77
     0
 78
     0
  0
ENDTAB
  0
TABLE
  2
LTYPE
  5
5
330
0
100
AcDbSymbolTable
 70
     3
  0
LTYPE
  5
14
330
5
100
AcDbSymbolTableRecord
100
AcDbLinetypeTableRecord
  2
BYBLOCK
 70
     0
  3

 72
    65
 73
     0
 40
0.0
  0
LTYPE
  5
15
330
5
100
AcDbSymbolTableRecord
100
AcDbLinetypeTableRecord
  2
BYLAYER
 70
     0
  3

 72
    65
 73
     0
 40
0.0
  0
LTYPE
  5
16
330
5
100
AcDbSymbolTableRecord
100
AcDbLinetypeTableRecord
  2
CONTINUOUS
 70
     0
  3
Solid line
 72
    65
 73
     0
 40
0.0
  0
LTYPE
  5
8D
330
5
100
AcDbSymbolTableRecord
100
AcDbLinetypeTableRecord
  2
CENTER
 70
     0
  3
Center ____ _ ____ _ ____ _ ____ _ ____ _ ____
 72
    65
 73
     4
 40
50.8
 49
31.75
 74
     0
 49
-6.349999999999999
 74
     0
 49
6.349999999999999
 74
     0
 49
-6.349999999999999
 74
     0
  0
LTYPE
  5
7EC
330
5
100
AcDbSymbolTableRecord
100
AcDbLinetypeTableRecord
  2
HIDDEN
 70
     0
  3
Hidden __ __ __ __ __ __ __ __ __ __ __ __ __ _
 72
    65
 73
     2
 40
9.524999999999998
 49
6.349999999999999
 74
     0
 49
-3.174999999999999
 74
     0
  0
ENDTAB
  0
TABLE
  2
LAYER
  5
2
330
0
100
AcDbSymbolTable
 70
     4
  0
LAYER
  5
10
330
2
100
AcDbSymbolTableRecord
100
AcDbLayerTableRecord
  2
0
 70
     0
 62
     7
  6
CONTINUOUS
  0
LAYER
  5
8A
330
2
100
AcDbSymbolTableRecord
100
AcDbLayerTableRecord
  2
BMK
 70
     0
 62
     1
  6
CENTER
  0
LAYER
  5
8E
330
2
100
AcDbSymbolTableRecord
100
AcDbLayerTableRecord
  2
DEFPOINTS
 70
     0
 62
     7
  6
CONTINUOUS
  0
LAYER
  5
8F
330
2
100
AcDbSymbolTableRecord
100
AcDbLayerTableRecord
  2
STR
 70
     0
 62
     7
  6
CONTINUOUS
  0
ENDTAB
  0
TABLE
  2
STYLE
  5
3
330
0
100
AcDbSymbolTable
 70
     2
  0
STYLE
  5
11
330
3
100
AcDbSymbolTableRecord
100
AcDbTextStyleTableRecord
  2
STANDARD
 70
     0
 40
0.0
 41
1.0
 50
0.0
 71
     0
 42
2.5
  3
txt.shx
  4
bigfont.shx
  0
STYLE
  5
88
330
3
100
AcDbSymbolTableRecord
100
AcDbTextStyleTableRecord
  2

 70
     1
 40
0.0
 41
1.0
 50
0.0
 71
     0
 42
2.5
  3
ltypeshp.shx
  4

  0
ENDTAB
  0
TABLE
  2
VIEW
  5
6
330
0
100
AcDbSymbolTable
 70
     0
  0
ENDTAB
  0
TABLE
  2
UCS
  5
7
330
0
100
AcDbSymbolTable
 70
     0
  0
ENDTAB
  0
TABLE
  2
APPID
  5
9
330
0
100
AcDbSymbolTable
 70
     1
  0
APPID
  5
12
330
9
100
AcDbSymbolTableRecord
100
AcDbRegAppTableRecord
  2
ACAD
 70
     0
  0
ENDTAB
  0
TABLE
  2
DIMSTYLE
  5
A
330
0
100
AcDbSymbolTable
 70
     2
  0
DIMSTYLE
105
27
330
A
100
AcDbSymbolTableRecord
100
AcDbDimStyleTableRecord
  2
ISO-25
 70
     0
  3

  4

  5

  6

  7

 40
1.0
 41
2.5
 42
0.625
 43
3.75
 44
1.25
 45
0.0
 46
0.0
 47
0.0
 48
0.0
140
2.5
141
2.5
142
0.0
143
0.03937007874016
144
1.0
145
0.0
146
1.0
147
0.625
 71
     0
 72
     0
 73
     0
 74
     0
 75
     0
 76
     0
 77
     1
 78
     8
170
     0
171
     3
172
     1
173
     0
174
     0
175
     0
176
     0
177
     0
178
     0
270
     2
271
     2
272
     2
273
     2
274
     3
340
11
275
     0
280
     0
281
     0
282
     0
283
     0
284
     8
285
     0
286
     0
287
     3
288
     0
  0
DIMSTYLE
105
103
330
A
100
AcDbSymbolTableRecord
100
AcDbDimStyleTableRecord
  2
ISO-25-BRGK
 70
     0
  3

  4

  5
OPEN30
  6

  7

 40
1.0
 41
20.0
 42
0.625
 43
3.75
 44
1.25
 45
0.0
 46
0.0
 47
0.0
 48
0.0
140
30.0
141
2.5
142
0.0
143
0.03937007874016
144
1.0
145
0.0
146
1.0
147
10.0
 71
     0
 72
     0
 73
     0
 74
     0
 75
     0
 76
     0
 77
     1
 78
     8
170
     0
171
     3
172
     1
173
     0
174
     0
175
     0
176
     0
177
     0
178
     0
270
     2
271
     2
272
     2
273
     2
274
     3
340
11
275
     0
280
     0
281
     0
282
     0
283
     0
284
     8
285
     0
286
     0
287
     2
288
     0
  0
ENDTAB
  0
TABLE
  2
BLOCK_RECORD
  5
1
330
0
100
AcDbSymbolTable
 70
    16
  0
BLOCK_RECORD
  5
1F
102
{ACAD_XDICTIONARY
360
D44
102
}
330
1
100
AcDbSymbolTableRecord
100
AcDbBlockTableRecord
  2
*MODEL_SPACE
  0
BLOCK_RECORD
  5
50
102
{ACAD_XDICTIONARY
360
D46
102
}
330
1
100
AcDbSymbolTableRecord
100
AcDbBlockTableRecord
  2
*PAPER_SPACE
  0
BLOCK_RECORD
  5
FA
330
1
100
AcDbSymbolTableRecord
100
AcDbBlockTableRecord
  2
_OPEN30
  0
BLOCK_RECORD
  5
100
330
1
100
AcDbSymbolTableRecord
100
AcDbBlockTableRecord
  2
_NONE
  0
BLOCK_RECORD
  5
1B4
330
1
100
AcDbSymbolTableRecord
100
AcDbBlockTableRecord
  2
A$C729548DD
  0
ENDTAB
  0
ENDSEC
  0
SECTION
  2
BLOCKS
  0
BLOCK
  5
20
330
1F
100
AcDbEntity
  8
0
100
AcDbBlockBegin
  2
*MODEL_SPACE
 70
     0
 10
0.0
 20
0.0
 30
0.0
  3
*MODEL_SPACE
  1

  0
ENDBLK
  5
21
330
1F
100
AcDbEntity
  8
0
100
AcDbBlockEnd
  0
BLOCK
  5
52
330
50
100
AcDbEntity
 67
     1
  8
0
100
AcDbBlockBegin
  2
*PAPER_SPACE
 70
     0
 10
0.0
 20
0.0
 30
0.0
  3
*PAPER_SPACE
  1

  0
ENDBLK
  5
53
330
50
100
AcDbEntity
 67
     1
  8
0
100
AcDbBlockEnd
  0
BLOCK
  5
FB
330
FA
100
AcDbEntity
  8
0
100
AcDbBlockBegin
  2
_OPEN30
 70
     0
 10
0.0
 20
0.0
 30
0.0
  3
_OPEN30
  1

  0
LINE
  5
FC
330
FA
100
AcDbEntity
  8
0
  6
BYBLOCK
 62
     0
100
AcDbLine
 10
-1.0
 20
0.26794919
 30
0.0
 11
0.0
 21
0.0
 31
0.0
  0
LINE
  5
FD
330
FA
100
AcDbEntity
  8
0
  6
BYBLOCK
 62
     0
100
AcDbLine
 10
0.0
 20
0.0
 30
0.0
 11
-1.0
 21
-0.26794919
 31
0.0
  0
LINE
  5
FE
330
FA
100
AcDbEntity
  8
0
  6
BYBLOCK
 62
     0
100
AcDbLine
 10
0.0
 20
0.0
 30
0.0
 11
-1.0
 21
0.0
 31
0.0
  0
ENDBLK
  5
FF
330
FA
100
AcDbEntity
  8
0
100
AcDbBlockEnd
  0
BLOCK
  5
101
330
100
100
AcDbEntity
  8
0
100
AcDbBlockBegin
  2
_NONE
 70
     0
 10
0.0
 20
0.0
 30
0.0
  3
_NONE
  1

  0
ENDBLK
  5
102
330
100
100
AcDbEntity
  8
0
100
AcDbBlockEnd
  0
BLOCK
  5
1F6
330
1B4
100
AcDbEntity
  8
0
100
AcDbBlockBegin
  2
A$C729548DD
 70
     0
 10
0.0
 20
0.0
 30
0.0
  3
A$C729548DD
  1

  0
LINE
  5
1B5
330
1B4
100
AcDbEntity
  8
STR
100
AcDbLine
 10
-0.0000009027020837
 20
127.0000034679299
 30
0.0
 11
-0.0000009027020837
 21
1862.940395141106
 31
0.0
  0
LINE
  5
1B6
330
1B4
100
AcDbEntity
  8
STR
100
AcDbLine
 10
1379.999999097298
 20
186.00000346793
 30
0.0
 11
1379.999999097298
 21
1843.630473564977
 31
0.0
  0
LINE
  5
1B7
330
1B4
100
AcDbEntity
  8
STR
100
AcDbLine
 10
79.99999909729791
 20
755.1516849830859
 30
0.0
 11
79.99999909729786
 21
1994.358201038612
 31
0.0
  0
LINE
  5
1B8
330
1B4
100
AcDbEntity
  8
STR
100
AcDbLine
 10
1829.999999097297
 20
140.0000034679299
 30
0.0
 11
1829.999999097297
 21
1994.358201038612
 31
0.0
  0
LINE
  5
1B9
330
1B4
100
AcDbEntity
  8
STR
100
AcDbLine
 10
-0.0000009027021406
 20
1091.000003467929
 30
0.0
 11
1869.999999097297
 21
1091.000003467929
 31
0.0
  0
LINE
  5
1BA
330
1B4
100
AcDbEntity
  8
STR
100
AcDbLine
 10
-0.0000009027021406
 20
1521.000003467929
 30
0.0
 11
1869.999999097297
 21
1521.000003467929
 31
0.0
  0
LINE
  5
1BB
330
1B4
100
AcDbEntity
  8
BMK
100
AcDbLine
 10
-0.0000009027021406
 20
1306.000003467929
 30
0.0
 11
3632.442605582238
 21
1306.000003467929
 31
0.0
  0
LINE
  5
1BC
330
1B4
100
AcDbEntity
  8
STR
100
AcDbLine
 10
1869.999999097298
 20
1091.000003467929
 30
0.0
 11
1869.999999097297
 21
1521.000003467929
 31
0.0
  0
LINE
  5
1BD
330
1B4
100
AcDbEntity
  8
STR
100
AcDbLine
 10
79.9999990972978
 20
51.00000346792987
 30
0.0
 11
-0.0000009027020837
 21
51.00000346792993
 31
0.0
  0
LINE
  5
1BE
330
1B4
100
AcDbEntity
  8
STR
100
AcDbLine
 10
79.9999990972978
 20
89.00000346792991
 30
0.0
 11
-0.0000009027020837
 21
89.00000346792991
 31
0.0
  0
LINE
  5
1BF
330
1B4
100
AcDbEntity
  8
STR
100
AcDbLine
 10
79.9999990972978
 20
127.0000034679299
 30
0.0
 11
-0.0000009027020837
 21
127.0000034679299
 31
0.0
  0
LINE
  5
1C0
330
1B4
100
AcDbEntity
  8
STR
100
AcDbLine
 10
79.9999990972978
 20
13.00000346792987
 30
0.0
 11
-0.0000009027020837
 21
13.00000346792993
 31
0.0
  0
LINE
  5
1C1
330
1B4
100
AcDbEntity
  8
STR
100
AcDbLine
 10
162.4999990972978
 20
562.0000034679299
 30
0.0
 11
162.4999990972977
 21
477.0000034679299
 31
0.0
  0
LINE
  5
1C2
330
1B4
100
AcDbEntity
  8
STR
100
AcDbLine
 10
162.4999990972977
 20
562.0000034679297
 30
0.0
 11
382.4999990972978
 21
562.0000034679299
 31
0.0
  0
LINE
  5
1C3
330
1B4
100
AcDbEntity
  8
STR
100
AcDbLine
 10
382.4999990972978
 20
477.0000034679299
 30
0.0
 11
162.4999990972976
 21
477.0000034679299
 31
0.0
  0
LINE
  5
1C4
330
1B4
100
AcDbEntity
  8
STR
100
AcDbLine
 10
1869.999999097298
 20
616.0000034679299
 30
0.0
 11
1869.999999097298
 21
186.00000346793
 31
0.0
  0
LINE
  5
1C5
330
1B4
100
AcDbEntity
  8
STR
100
AcDbLine
 10
1739.999999097298
 20
616.0000034679299
 30
0.0
 11
1739.999999097298
 21
186.00000346793
 31
0.0
  0
LINE
  5
1C6
330
1B4
100
AcDbEntity
  8
STR
100
AcDbLine
 10
719.9999990972983
 20
616.00000346793
 30
0.0
 11
719.9999990972978
 21
186.00000346793
 31
0.0
  0
LINE
  5
1C7
330
1B4
100
AcDbEntity
  8
STR
100
AcDbLine
 10
679.9999990972978
 20
616.00000346793
 30
0.0
 11
679.999999097298
 21
186.00000346793
 31
0.0
  0
LINE
  5
1C8
330
1B4
100
AcDbEntity
  8
STR
100
AcDbLine
 10
614.9999990972978
 20
286.0000034679301
 30
0.0
 11
654.9999990972978
 21
286.00000346793
 31
0.0
  0
LINE
  5
1C9
330
1B4
100
AcDbEntity
  8
STR
100
AcDbLine
 10
614.9999990972978
 20
526.0000034679296
 30
0.0
 11
654.9999990972978
 21
526.0000034679298
 31
0.0
  0
LINE
  5
1CA
330
1B4
100
AcDbEntity
  8
STR
100
AcDbLine
 10
574.9999990972979
 20
346.0000034679298
 30
0.0
 11
614.9999990972978
 21
346.0000034679298
 31
0.0
  0
LINE
  5
1CB
330
1B4
100
AcDbEntity
  8
STR
100
AcDbLine
 10
574.9999990972979
 20
466.0000034679297
 30
0.0
 11
614.9999990972978
 21
466.0000034679297
 31
0.0
  0
LINE
  5
1CC
330
1B4
100
AcDbEntity
  8
STR
100
AcDbLine
 10
554.9999990972979
 20
366.0000034679299
 30
0.0
 11
574.9999990972979
 21
366.0000034679299
 31
0.0
  0
LINE
  5
1CD
330
1B4
100
AcDbEntity
  8
STR
100
AcDbLine
 10
554.9999990972979
 20
446.0000034679297
 30
0.0
 11
574.9999990972979
 21
446.0000034679297
 31
0.0
  0
LINE
  5
1CE
330
1B4
100
AcDbEntity
  8
STR
100
AcDbLine
 10
494.999999097298
 20
326.0000034679298
 30
0.0
 11
554.9999990972979
 21
326.0000034679298
 31
0.0
  0
LINE
  5
1CF
330
1B4
100
AcDbEntity
  8
STR
100
AcDbLine
 10
494.999999097298
 20
486.0000034679297
 30
0.0
 11
554.9999990972979
 21
486.0000034679297
 31
0.0
  0
LINE
  5
1D0
330
1B4
100
AcDbEntity
  8
STR
100
AcDbLine
 10
654.9999990972978
 20
286.0000034679299
 30
0.0
 11
654.9999990972978
 21
526.0000034679298
 31
0.0
  0
LINE
  5
1D1
330
1B4
100
AcDbEntity
  8
STR
100
AcDbLine
 10
614.9999990972978
 20
286.00000346793
 30
0.0
 11
614.9999990972978
 21
526.0000034679296
 31
0.0
  0
LINE
  5
1D2
330
1B4
100
AcDbEntity
  8
STR
100
AcDbLine
 10
574.999999097298
 20
346.0000034679298
 30
0.0
 11
574.999999097298
 21
466.0000034679298
 31
0.0
  0
LINE
  5
1D3
330
1B4
100
AcDbEntity
  8
STR
100
AcDbLine
 10
554.999999097298
 20
326.0000034679299
 30
0.0
 11
554.9999990972979
 21
486.0000034679297
 31
0.0
  0
LINE
  5
1D4
330
1B4
100
AcDbEntity
  8
STR
100
AcDbLine
 10
312.4999990972976
 20
335.0000034679299
 30
0.0
 11
312.4999990972975
 21
477.0000034679299
 31
0.0
  0
LINE
  5
1D5
330
1B4
100
AcDbEntity
  8
STR
100
AcDbLine
 10
282.4999990972977
 20
335.0000034679299
 30
0.0
 11
282.4999990972977
 21
477.0000034679299
 31
0.0
  0
LINE
  5
1D6
330
1B4
100
AcDbEntity
  8
STR
100
AcDbLine
 10
382.4999990972978
 20
532.00000346793
 30
0.0
 11
382.4999990972978
 21
462.00000346793
 31
0.0
  0
LINE
  5
1D7
330
1B4
100
AcDbEntity
  8
STR
100
AcDbLine
 10
382.4999990972978
 20
335.0000034679299
 30
0.0
 11
162.4999990972977
 21
335.0000034679299
 31
0.0
  0
LINE
  5
1D8
330
1B4
100
AcDbEntity
  8
STR
100
AcDbLine
 10
162.4999990972978
 20
250.0000034679298
 30
0.0
 11
382.4999990972978
 21
250.0000034679298
 31
0.0
  0
LINE
  5
1D9
330
1B4
100
AcDbEntity
  8
STR
100
AcDbLine
 10
162.4999990972978
 20
250.0000034679298
 30
0.0
 11
162.4999990972977
 21
335.0000034679297
 31
0.0
  0
LINE
  5
1DA
330
1B4
100
AcDbEntity
  8
STR
100
AcDbLine
 10
382.4999990972978
 20
585.0000034679299
 30
0.0
 11
494.9999990972981
 21
585.0000034679299
 31
0.0
  0
LINE
  5
1DB
330
1B4
100
AcDbEntity
  8
STR
100
AcDbLine
 10
494.9999990972981
 20
250.0000034679299
 30
0.0
 11
494.9999990972982
 21
595.00000346793
 31
0.0
  0
LINE
  5
1DC
330
1B4
100
AcDbEntity
  8
STR
100
AcDbLine
 10
494.999999097298
 20
250.0000034679298
 30
0.0
 11
544.999999097298
 21
250.0000034679298
 31
0.0
  0
LINE
  5
1DD
330
1B4
100
AcDbEntity
  8
STR
100
AcDbLine
 10
382.4999990972978
 20
595.0000034679298
 30
0.0
 11
494.9999990972981
 21
595.00000346793
 31
0.0
  0
LINE
  5
1DE
330
1B4
100
AcDbEntity
  8
STR
100
AcDbLine
 10
382.4999990972977
 20
250.0000034679298
 30
0.0
 11
382.4999990972978
 21
595.0000034679298
 31
0.0
  0
LINE
  5
1DF
330
1B4
100
AcDbEntity
  8
STR
100
AcDbLine
 10
332.4999990972978
 20
250.0000034679298
 30
0.0
 11
382.4999990972978
 21
250.0000034679298
 31
0.0
  0
LINE
  5
1E0
330
1B4
100
AcDbEntity
  8
STR
100
AcDbLine
 10
332.4999990972978
 20
200.0000034679298
 30
0.0
 11
332.4999990972978
 21
250.0000034679298
 31
0.0
  0
LINE
  5
1E1
330
1B4
100
AcDbEntity
  8
STR
100
AcDbLine
 10
139.9999990972978
 20
315.0000034679298
 30
0.0
 11
79.99999909729786
 21
315.0000034679298
 31
0.0
  0
LINE
  5
1E2
330
1B4
100
AcDbEntity
  8
STR
100
AcDbLine
 10
139.9999990972978
 20
315.0000034679298
 30
0.0
 11
139.9999990972978
 21
200.0000034679298
 31
0.0
  0
LINE
  5
1E3
330
1B4
100
AcDbEntity
  8
STR
100
AcDbLine
 10
544.9999990972978
 20
200.0000034679298
 30
0.0
 11
544.9999990972981
 21
250.0000034679298
 31
0.0
  0
LINE
  5
1E4
330
1B4
100
AcDbEntity
  8
STR
100
AcDbLine
 10
594.9999990972977
 20
140.0000034679299
 30
0.0
 11
594.9999990972978
 21
200.0000034679298
 31
0.0
  0
LINE
  5
1E5
330
1B4
100
AcDbEntity
  8
STR
100
AcDbLine
 10
589.9999990972978
 20
70.00000346792987
 30
0.0
 11
589.9999990972977
 21
140.0000034679299
 31
0.0
  0
LINE
  5
1E6
330
1B4
100
AcDbEntity
  8
STR
100
AcDbLine
 10
654.9999990972983
 20
616.00000346793
 30
0.0
 11
654.9999990972978
 21
186.00000346793
 31
0.0
  0
LINE
  5
1E7
330
1B4
100
AcDbEntity
  8
STR
100
AcDbLine
 10
1379.999999097298
 20
186.00000346793
 30
0.0
 11
1379.999999097297
 21
30.00000346792987
 31
0.0
  0
LINE
  5
1E8
330
1B4
100
AcDbEntity
  8
STR
100
AcDbLine
 10
79.99999909729786
 20
315.0000034679298
 30
0.0
 11
79.99999909729786
 21
140.0000034679299
 31
0.0
  0
LINE
  5
1E9
330
1B4
100
AcDbEntity
  8
STR
100
AcDbLine
 10
594.9999990972978
 20
200.0000034679298
 30
0.0
 11
79.99999909729786
 21
200.00000346793
 31
0.0
  0
LINE
  5
1EA
330
1B4
100
AcDbEntity
  8
STR
100
AcDbLine
 10
79.99999909729786
 20
70.0000034679299
 30
0.0
 11
589.9999990972976
 21
70.0000034679299
 31
0.0
  0
LINE
  5
1EB
330
1B4
100
AcDbEntity
  8
STR
100
AcDbLine
 10
79.99999909729786
 20
140.0000034679299
 30
0.0
 11
79.99999909729786
 21
0.0000034679299006
 31
0.0
  0
LINE
  5
1EC
330
1B4
100
AcDbEntity
  8
STR
100
AcDbLine
 10
79.99999909729786
 20
140.0000034679299
 30
0.0
 11
79.99999909729791
 21
0.0000034679299574
 31
0.0
  0
LINE
  5
1ED
330
1B4
100
AcDbEntity
  8
STR
100
AcDbLine
 10
-0.0000009027021406
 20
127.0000034679298
 30
0.0
 11
-0.0000009027020837
 21
13.00000346792995
 31
0.0
  0
LINE
  5
1EE
330
1B4
100
AcDbEntity
  8
STR
100
AcDbLine
 10
1829.999999097297
 20
140.0000034679299
 30
0.0
 11
1829.999999097297
 21
0.0000034679299006
 31
0.0
  0
LINE
  5
1EF
330
1B4
100
AcDbEntity
  8
STR
100
AcDbLine
 10
79.99999909729791
 20
30.00000346792992
 30
0.0
 11
1829.999999097297
 21
30.0000034679299
 31
0.0
  0
LINE
  5
1F0
330
1B4
100
AcDbEntity
  8
STR
100
AcDbLine
 10
589.9999990972978
 20
110.0000034679299
 30
0.0
 11
1829.999999097297
 21
110.0000034679299
 31
0.0
  0
LINE
  5
1F1
330
1B4
100
AcDbEntity
  8
STR
100
AcDbLine
 10
79.99999909729786
 20
140.0000034679299
 30
0.0
 11
1829.999999097297
 21
140.0000034679299
 31
0.0
  0
LINE
  5
1F2
330
1B4
100
AcDbEntity
  8
STR
100
AcDbLine
 10
654.9999990972983
 20
616.00000346793
 30
0.0
 11
1869.999999097298
 21
616.00000346793
 31
0.0
  0
LINE
  5
1F3
330
1B4
100
AcDbEntity
  8
STR
100
AcDbLine
 10
654.9999990972978
 20
186.00000346793
 30
0.0
 11
1869.999999097298
 21
186.00000346793
 31
0.0
  0
LINE
  5
1F4
330
1B4
100
AcDbEntity
  8
BMK
100
AcDbLine
 10
-0.0000009027021406
 20
406.0000034679299
 30
0.0
 11
3632.442605582238
 21
406.0000034679299
 31
0.0
  0
LINE
  5
1F5
330
1B4
100
AcDbEntity
  8
STR
100
AcDbLine
 10
79.99999909729786
 20
0.0000034679298722
 30
0.0
 11
1829.999999097297
 21
0.0000034679299006
 31
0.0
  0
ENDBLK
  5
1F7
330
1B4
100
AcDbEntity
  8
0
100
AcDbBlockEnd
  0
ENDSEC
  0
SECTION
  2
ENTITIES
  0
LINE
  5
24B
330
1F
100
AcDbEntity
  8
BMK
100
AcDbLine
 10
363.7148387572942
 20
1496.085233563678
 30
0.0
 11
4461.034264910906
 21
1496.085233563678
 31
0.0
  0
TEXT
  5
4DB
330
1F
100
AcDbEntity
  8
STR
100
AcDbText
 10
1069.034525233014
 20
2896.870964962833
 30
0.0
 40
60.0
  1
3-2-5　　KYT-5030WH
100
AcDbText
  0
LINE
  5
75F
330
1F
100
AcDbEntity
  8
STR
100
AcDbLine
 10
473.7148387572942
 20
746.0852335636786
 30
0.0
 11
2823.714838757294
 21
746.0852335636786
 31
0.0
  0
LINE
  5
760
330
1F
100
AcDbEntity
  8
STR
100
AcDbLine
 10
473.7148387572942
 20
976.0852335636789
 30
0.0
 11
2823.714838757294
 21
976.0852335636787
 31
0.0
  0
LINE
  5
762
330
1F
100
AcDbEntity
  8
STR
100
AcDbLine
 10
463.7148387572942
 20
756.0852335636787
 30
0.0
 11
463.7148387572942
 21
966.0852335636789
 31
0.0
  0
LINE
  5
763
330
1F
100
AcDbEntity
  8
STR
100
AcDbLine
 10
483.7148387572942
 20
746.0852335636786
 30
0.0
 11
483.7148387572942
 21
976.0852335636789
 31
0.0
  0
LINE
  5
76F
330
1F
100
AcDbEntity
  8
STR
100
AcDbLine
 10
1313.714838757294
 20
1296.085233563678
 30
0.0
 11
1313.714838757294
 21
1696.085233563679
 31
0.0
  0
LINE
  5
770
330
1F
100
AcDbEntity
  8
STR
100
AcDbLine
 10
1263.714838757294
 20
1246.085233563678
 30
0.0
 11
1263.714838757294
 21
1746.085233563679
 31
0.0
  0
LINE
  5
771
330
1F
100
AcDbEntity
  8
STR
100
AcDbLine
 10
1163.714838757294
 20
1296.085233563678
 30
0.0
 11
1163.714838757294
 21
1696.085233563678
 31
0.0
  0
LINE
  5
777
330
1F
100
AcDbEntity
  8
STR
100
AcDbLine
 10
1163.714838757294
 20
1596.085233563678
 30
0.0
 11
1203.714838757294
 21
1596.085233563679
 31
0.0
  0
LINE
  5
778
330
1F
100
AcDbEntity
  8
STR
100
AcDbLine
 10
1163.714838757294
 20
1396.085233563678
 30
0.0
 11
1203.714838757294
 21
1396.085233563678
 31
0.0
  0
LINE
  5
794
330
1F
100
AcDbEntity
  8
STR
100
AcDbLine
 10
493.7148387572943
 20
946.0852335636792
 30
0.0
 11
503.7148387572942
 21
946.0852335636792
 31
0.0
  0
LINE
  5
795
330
1F
100
AcDbEntity
  8
STR
100
AcDbLine
 10
493.7148387572943
 20
776.0852335636786
 30
0.0
 11
2823.714838757295
 21
776.0852335636786
 31
0.0
  0
LINE
  5
7AA
330
1F
100
AcDbEntity
  8
BMK
100
AcDbLine
 10
523.7148387572942
 20
884.2033346604548
 30
0.0
 11
523.7148387572942
 21
1210.248745751718
 31
0.0
  0
LINE
  5
7E6
330
1F
100
AcDbEntity
  8
STR
100
AcDbLine
 10
2823.714838757294
 20
746.0852335636786
 30
0.0
 11
2823.714838757294
 21
976.0852335636787
 31
0.0
  0
LINE
  5
7E8
330
1F
100
AcDbEntity
  8
STR
100
AcDbLine
 10
503.7148387572942
 20
1026.085233563678
 30
0.0
 11
1163.714838757294
 21
1026.085233563678
 31
0.0
  0
LINE
  5
7EA
330
1F
100
AcDbEntity
  8
STR
  6
HIDDEN
100
AcDbLine
 10
493.7148387572938
 20
826.0852335636787
 30
0.0
 11
1963.714838757294
 21
826.0852335636787
 31
0.0
  0
LINE
  5
7EB
330
1F
100
AcDbEntity
  8
STR
  6
HIDDEN
100
AcDbLine
 10
1963.714838757294
 20
826.0852335636787
 30
0.0
 11
1963.714838757294
 21
946.0852335636788
 31
0.0
  0
LINE
  5
7ED
330
1F
100
AcDbEntity
  8
STR
100
AcDbLine
 10
503.7148387572942
 20
906.085233563679
 30
0.0
 11
1163.714838757294
 21
906.0852335636786
 31
0.0
  0
LINE
  5
7EF
330
1F
100
AcDbEntity
  8
STR
100
AcDbLine
 10
503.7148387572942
 20
906.085233563679
 30
0.0
 11
503.7148387572942
 21
1026.085233563678
 31
0.0
  0
LINE
  5
7F0
330
1F
100
AcDbEntity
  8
STR
100
AcDbLine
 10
1313.714838757294
 20
1246.085233563678
 30
0.0
 11
1313.714838757294
 21
1746.085233563679
 31
0.0
  0
LINE
  5
7F1
330
1F
100
AcDbEntity
  8
STR
100
AcDbLine
 10
1163.714838757294
 20
906.0852335636786
 30
0.0
 11
1163.714838757294
 21
1076.085233563678
 31
0.0
  0
LINE
  5
7F2
330
1F
100
AcDbEntity
  8
STR
100
AcDbLine
 10
1163.714838757294
 20
946.0852335636788
 30
0.0
 11
2823.714838757294
 21
946.0852335636786
 31
0.0
  0
LINE
  5
7F4
330
1F
100
AcDbEntity
  8
STR
100
AcDbLine
 10
833.7148387572939
 20
1076.085233563679
 30
0.0
 11
1163.714838757294
 21
1076.085233563678
 31
0.0
  0
LINE
  5
7F5
330
1F
100
AcDbEntity
  8
STR
100
AcDbLine
 10
1203.714838757294
 20
1346.085233563678
 30
0.0
 11
1203.714838757294
 21
1646.085233563678
 31
0.0
  0
LINE
  5
7FA
330
1F
100
AcDbEntity
  8
STR
100
AcDbLine
 10
1263.714838757294
 20
1746.085233563678
 30
0.0
 11
1313.714838757294
 21
1746.085233563679
 31
0.0
  0
LINE
  5
7FB
330
1F
100
AcDbEntity
  8
STR
100
AcDbLine
 10
1263.714838757294
 20
1246.085233563678
 30
0.0
 11
1313.714838757294
 21
1246.085233563678
 31
0.0
  0
LINE
  5
7FC
330
1F
100
AcDbEntity
  8
STR
100
AcDbLine
 10
1203.714838757294
 20
1646.085233563678
 30
0.0
 11
1263.714838757294
 21
1646.085233563678
 31
0.0
  0
LINE
  5
7FD
330
1F
100
AcDbEntity
  8
STR
100
AcDbLine
 10
1203.714838757294
 20
1346.085233563678
 30
0.0
 11
1263.714838757294
 21
1346.085233563678
 31
0.0
  0
LINE
  5
7FE
330
1F
100
AcDbEntity
  8
STR
100
AcDbLine
 10
1083.714838757294
 20
1076.085233563679
 30
0.0
 11
1083.714838757294
 21
2016.085233563678
 31
0.0
  0
LINE
  5
802
330
1F
100
AcDbEntity
  8
STR
100
AcDbLine
 10
833.7148387572943
 20
1076.085233563679
 30
0.0
 11
833.7148387572943
 21
2016.085233563678
 31
0.0
  0
LINE
  5
807
330
1F
100
AcDbEntity
  8
STR
100
AcDbLine
 10
833.7148387572939
 20
1076.085233563679
 30
0.0
 11
543.7148387572943
 21
1076.085233563679
 31
0.0
  0
LINE
  5
809
330
1F
100
AcDbEntity
  8
STR
100
AcDbLine
 10
543.7148387572943
 20
1296.085233563678
 30
0.0
 11
543.7148387572943
 21
1076.085233563679
 31
0.0
  0
LINE
  5
80D
330
1F
100
AcDbEntity
  8
STR
100
AcDbLine
 10
763.7148387572942
 20
1296.085233563679
 30
0.0
 11
763.7148387572942
 21
1696.085233563678
 31
0.0
  0
LINE
  5
80E
330
1F
100
AcDbEntity
  8
STR
100
AcDbLine
 10
733.7148387572942
 20
1346.085233563679
 30
0.0
 11
733.7148387572942
 21
1646.085233563678
 31
0.0
  0
LINE
  5
80F
330
1F
100
AcDbEntity
  8
STR
100
AcDbLine
 10
763.7148387572942
 20
1646.085233563678
 30
0.0
 11
733.7148387572942
 21
1646.085233563678
 31
0.0
  0
LINE
  5
810
330
1F
100
AcDbEntity
  8
STR
100
AcDbLine
 10
763.7148387572942
 20
1346.085233563678
 30
0.0
 11
733.7148387572942
 21
1346.085233563679
 31
0.0
  0
LINE
  5
811
330
1F
100
AcDbEntity
  8
STR
100
AcDbLine
 10
763.7148387572942
 20
1076.085233563679
 30
0.0
 11
763.7148387572938
 21
1026.085233563678
 31
0.0
  0
LINE
  5
812
330
1F
100
AcDbEntity
  8
STR
100
AcDbLine
 10
543.7148387572943
 20
1696.085233563679
 30
0.0
 11
543.7148387572952
 21
1916.085233563679
 31
0.0
  0
LINE
  5
813
330
1F
100
AcDbEntity
  8
STR
100
AcDbLine
 10
833.7148387572947
 20
1696.085233563678
 30
0.0
 11
543.7148387572947
 21
1696.085233563679
 31
0.0
  0
LINE
  5
814
330
1F
100
AcDbEntity
  8
STR
100
AcDbLine
 10
833.7148387572952
 20
1916.085233563678
 30
0.0
 11
543.7148387572952
 21
1916.085233563679
 31
0.0
  0
LINE
  5
815
330
1F
100
AcDbEntity
  8
STR
100
AcDbLine
 10
833.7148387572943
 20
1966.085233563678
 30
0.0
 11
1083.714838757294
 21
1966.085233563678
 31
0.0
  0
LINE
  5
816
330
1F
100
AcDbEntity
  8
STR
100
AcDbLine
 10
833.7148387572943
 20
2016.085233563678
 30
0.0
 11
1083.714838757294
 21
2016.085233563678
 31
0.0
  0
LINE
  5
817
330
1F
100
AcDbEntity
  8
STR
100
AcDbLine
 10
3631.918545407158
 20
2016.085233563678
 30
0.0
 11
4281.918545407156
 21
2016.085233563678
 31
0.0
  0
LINE
  5
819
330
1F
100
AcDbEntity
  8
BMK
100
AcDbLine
 10
3956.918545407157
 20
2314.310618381135
 30
0.0
 11
3956.918545407157
 21
696.0011409782792
 31
0.0
  0
LINE
  5
81A
330
1F
100
AcDbEntity
  8
STR
100
AcDbLine
 10
3626.918545407157
 20
746.0852335636786
 30
0.0
 11
4286.918545407157
 21
746.0852335636786
 31
0.0
  0
LINE
  5
81B
330
1F
100
AcDbEntity
  8
STR
100
AcDbLine
 10
4286.918545407156
 20
776.0852335636786
 30
0.0
 11
4286.918545407157
 21
746.0852335636786
 31
0.0
  0
LINE
  5
81C
330
1F
100
AcDbEntity
  8
STR
100
AcDbLine
 10
3626.918545407157
 20
776.0852335636786
 30
0.0
 11
3626.918545407157
 21
746.0852335636786
 31
0.0
  0
LINE
  5
81D
330
1F
100
AcDbEntity
  8
STR
100
AcDbLine
 10
3626.918545407157
 20
776.0852335636786
 30
0.0
 11
4286.918545407157
 21
776.0852335636786
 31
0.0
  0
LINE
  5
81F
330
1F
100
AcDbEntity
  8
STR
100
AcDbLine
 10
3626.918545407157
 20
1026.085233563678
 30
0.0
 11
3626.918545407156
 21
906.0852335636786
 31
0.0
  0
LINE
  5
820
330
1F
100
AcDbEntity
  8
STR
100
AcDbLine
 10
4286.918545407156
 20
1026.085233563678
 30
0.0
 11
4286.91854540716
 21
906.0852335636786
 31
0.0
  0
LINE
  5
821
330
1F
100
AcDbEntity
  8
STR
100
AcDbLine
 10
3626.918545407157
 20
996.0852335636788
 30
0.0
 11
4286.918545407157
 21
996.0852335636788
 31
0.0
  0
LINE
  5
823
330
1F
100
AcDbEntity
  8
STR
100
AcDbLine
 10
3676.918545407156
 20
946.0852335636788
 30
0.0
 11
3816.918545407156
 21
946.0852335636786
 31
0.0
  0
LINE
  5
824
330
1F
100
AcDbEntity
  8
STR
100
AcDbLine
 10
3626.918545407157
 20
906.0852335636786
 30
0.0
 11
3756.918545407156
 21
906.0852335636786
 31
0.0
  0
LINE
  5
825
330
1F
100
AcDbEntity
  8
STR
100
AcDbLine
 10
3676.918545407157
 20
996.0852335636788
 30
0.0
 11
3676.918545407157
 21
946.0852335636788
 31
0.0
  0
LINE
  5
826
330
1F
100
AcDbEntity
  8
STR
100
AcDbLine
 10
4236.918545407157
 20
996.0852335636788
 30
0.0
 11
4236.918545407159
 21
946.0852335636786
 31
0.0
  0
LINE
  5
827
330
1F
100
AcDbEntity
  8
STR
100
AcDbLine
 10
3756.918545407156
 20
946.0852335636788
 30
0.0
 11
3756.918545407155
 21
906.0852335636786
 31
0.0
  0
LINE
  5
828
330
1F
100
AcDbEntity
  8
STR
100
AcDbLine
 10
4156.918545407157
 20
946.0852335636786
 30
0.0
 11
4156.918545407159
 21
906.0852335636786
 31
0.0
  0
LINE
  5
829
330
1F
100
AcDbEntity
  8
STR
100
AcDbLine
 10
4156.918545407158
 20
906.0852335636786
 30
0.0
 11
4286.918545407157
 21
906.0852335636786
 31
0.0
  0
LINE
  5
82A
330
1F
100
AcDbEntity
  8
STR
100
AcDbLine
 10
3776.918545407156
 20
946.0852335636786
 30
0.0
 11
3776.918545407152
 21
776.0852335636786
 31
0.0
  0
LINE
  5
82B
330
1F
100
AcDbEntity
  8
STR
100
AcDbLine
 10
4136.918545407157
 20
946.0852335636786
 30
0.0
 11
4136.918545407165
 21
776.0852335636786
 31
0.0
  0
LINE
  5
82C
330
1F
100
AcDbEntity
  8
STR
100
AcDbLine
 10
3816.918545407157
 20
996.0852335636788
 30
0.0
 11
3816.918545407152
 21
776.0852335636786
 31
0.0
  0
LINE
  5
82D
330
1F
100
AcDbEntity
  8
STR
100
AcDbLine
 10
4096.918545407155
 20
996.0852335636788
 30
0.0
 11
4096.918545407165
 21
776.0852335636786
 31
0.0
  0
LINE
  5
82E
330
1F
100
AcDbEntity
  8
STR
100
AcDbLine
 10
4096.918545407157
 20
946.0852335636786
 30
0.0
 11
4236.918545407159
 21
946.0852335636786
 31
0.0
  0
LINE
  5
832
330
1F
100
AcDbEntity
  8
STR
100
AcDbLine
 10
1083.714838757294
 20
1696.085233563678
 30
0.0
 11
1163.714838757294
 21
1696.085233563678
 31
0.0
  0
LINE
  5
833
330
1F
100
AcDbEntity
  8
STR
100
AcDbLine
 10
1083.714838757294
 20
1296.085233563678
 30
0.0
 11
1163.714838757294
 21
1296.085233563678
 31
0.0
  0
LINE
  5
835
330
1F
100
AcDbEntity
  8
STR
100
AcDbLine
 10
833.7148387572947
 20
1296.085233563679
 30
0.0
 11
543.7148387572947
 21
1296.085233563678
 31
0.0
  0
CIRCLE
  5
837
330
1F
100
AcDbEntity
  8
STR
100
AcDbCircle
 10
3956.918545407157
 20
1496.085233563678
 30
0.0
 40
199.9999999999997
  0
LINE
  5
838
330
1F
100
AcDbEntity
  8
STR
100
AcDbLine
 10
4281.918545407156
 20
2016.085233563678
 30
0.0
 11
4281.918545407156
 21
1266.085233563679
 31
0.0
  0
LINE
  5
839
330
1F
100
AcDbEntity
  8
STR
100
AcDbLine
 10
3631.918545407157
 20
2016.085233563678
 30
0.0
 11
3631.918545407158
 21
1266.085233563679
 31
0.0
  0
LINE
  5
83A
330
1F
100
AcDbEntity
  8
STR
100
AcDbLine
 10
3631.918545407158
 20
1966.085233563678
 30
0.0
 11
4281.918545407156
 21
1966.085233563678
 31
0.0
  0
LINE
  5
83B
330
1F
100
AcDbEntity
  8
STR
100
AcDbLine
 10
1103.714838757294
 20
1076.085233563679
 30
0.0
 11
1103.714838757294
 21
1266.085233563679
 31
0.0
  0
LINE
  5
83C
330
1F
100
AcDbEntity
  8
STR
100
AcDbLine
 10
1103.714838757293
 20
1716.085233563678
 30
0.0
 11
1103.714838757294
 21
1966.085233563678
 31
0.0
  0
LINE
  5
83D
330
1F
100
AcDbEntity
  8
STR
100
AcDbLine
 10
1103.714838757294
 20
1266.085233563679
 30
0.0
 11
833.7148387572943
 21
1266.085233563679
 31
0.0
  0
LINE
  5
83F
330
1F
100
AcDbEntity
  8
STR
100
AcDbLine
 10
3631.918545407158
 20
1266.085233563679
 30
0.0
 11
3681.918545407158
 21
1266.085233563679
 31
0.0
  0
LINE
  5
840
330
1F
100
AcDbEntity
  8
STR
100
AcDbLine
 10
3681.918545407159
 20
1266.085233563679
 30
0.0
 11
3681.918545407159
 21
1026.085233563678
 31
0.0
  0
LINE
  5
841
330
1F
100
AcDbEntity
  8
STR
100
AcDbLine
 10
4231.918545407157
 20
1266.085233563679
 30
0.0
 11
4231.918545407157
 21
1026.085233563678
 31
0.0
  0
LINE
  5
842
330
1F
100
AcDbEntity
  8
STR
100
AcDbLine
 10
4231.918545407157
 20
1266.085233563679
 30
0.0
 11
4281.918545407156
 21
1266.085233563679
 31
0.0
  0
LINE
  5
844
330
1F
100
AcDbEntity
  8
STR
100
AcDbLine
 10
4216.918545407157
 20
1696.085233563678
 30
0.0
 11
3996.918545407158
 21
1696.085233563679
 31
0.0
  0
LINE
  5
845
330
1F
100
AcDbEntity
  8
STR
100
AcDbLine
 10
4216.918545407157
 20
1916.085233563679
 30
0.0
 11
3996.918545407158
 21
1916.085233563679
 31
0.0
  0
LINE
  5
846
330
1F
100
AcDbEntity
  8
STR
100
AcDbLine
 10
3996.918545407158
 20
1916.085233563679
 30
0.0
 11
3996.918545407158
 21
1696.085233563679
 31
0.0
  0
LINE
  5
847
330
1F
100
AcDbEntity
  8
STR
100
AcDbLine
 10
4216.918545407157
 20
1916.085233563679
 30
0.0
 11
4216.918545407157
 21
1696.085233563678
 31
0.0
  0
LINE
  5
848
330
1F
100
AcDbEntity
  8
STR
100
AcDbLine
 10
3696.918545407158
 20
1696.085233563678
 30
0.0
 11
3916.918545407158
 21
1696.085233563679
 31
0.0
  0
LINE
  5
849
330
1F
100
AcDbEntity
  8
STR
100
AcDbLine
 10
3696.918545407158
 20
1916.085233563679
 30
0.0
 11
3696.918545407158
 21
1696.085233563678
 31
0.0
  0
LINE
  5
84A
330
1F
100
AcDbEntity
  8
STR
100
AcDbLine
 10
3916.918545407158
 20
1916.085233563679
 30
0.0
 11
3916.918545407158
 21
1696.085233563679
 31
0.0
  0
LINE
  5
84B
330
1F
100
AcDbEntity
  8
STR
100
AcDbLine
 10
3696.918545407158
 20
1916.085233563679
 30
0.0
 11
3916.918545407158
 21
1916.085233563679
 31
0.0
  0
LINE
  5
84C
330
1F
100
AcDbEntity
  8
STR
100
AcDbLine
 10
3696.918545407157
 20
1076.085233563678
 30
0.0
 11
3916.918545407158
 21
1076.085233563678
 31
0.0
  0
LINE
  5
84D
330
1F
100
AcDbEntity
  8
STR
100
AcDbLine
 10
3916.918545407158
 20
1076.085233563678
 30
0.0
 11
3916.918545407158
 21
1296.085233563678
 31
0.0
  0
LINE
  5
84E
330
1F
100
AcDbEntity
  8
STR
100
AcDbLine
 10
3696.918545407157
 20
1076.085233563678
 30
0.0
 11
3696.918545407157
 21
1296.085233563678
 31
0.0
  0
LINE
  5
84F
330
1F
100
AcDbEntity
  8
STR
100
AcDbLine
 10
3696.918545407157
 20
1296.085233563678
 30
0.0
 11
3916.918545407158
 21
1296.085233563678
 31
0.0
  0
LINE
  5
850
330
1F
100
AcDbEntity
  8
STR
100
AcDbLine
 10
4216.918545407156
 20
1076.085233563677
 30
0.0
 11
4216.918545407157
 21
1296.085233563678
 31
0.0
  0
LINE
  5
851
330
1F
100
AcDbEntity
  8
STR
100
AcDbLine
 10
3996.918545407157
 20
1076.085233563678
 30
0.0
 11
3996.918545407158
 21
1296.085233563678
 31
0.0
  0
LINE
  5
852
330
1F
100
AcDbEntity
  8
STR
100
AcDbLine
 10
4216.918545407156
 20
1076.085233563677
 30
0.0
 11
3996.918545407157
 21
1076.085233563678
 31
0.0
  0
LINE
  5
853
330
1F
100
AcDbEntity
  8
STR
100
AcDbLine
 10
4216.918545407157
 20
1296.085233563678
 30
0.0
 11
3996.918545407158
 21
1296.085233563678
 31
0.0
  0
LINE
  5
854
330
1F
100
AcDbEntity
  8
BMK
100
AcDbLine
 10
3581.918545407158
 20
1186.085233563678
 30
0.0
 11
4331.918545407155
 21
1186.085233563678
 31
0.0
  0
LINE
  5
855
330
1F
100
AcDbEntity
  8
BMK
100
AcDbLine
 10
3581.918545407158
 20
1806.085233563679
 30
0.0
 11
4331.918545407155
 21
1806.085233563679
 31
0.0
  0
LINE
  5
856
330
1F
100
AcDbEntity
  8
BMK
100
AcDbLine
 10
3806.918545407159
 20
1936.085233563679
 30
0.0
 11
3806.918545407159
 21
1665.847119636608
 31
0.0
  0
LINE
  5
857
330
1F
100
AcDbEntity
  8
BMK
100
AcDbLine
 10
4106.918545407157
 20
1936.085233563679
 30
0.0
 11
4106.918545407157
 21
1676.085233563679
 31
0.0
  0
LINE
  5
85C
330
1F
100
AcDbEntity
  8
BMK
100
AcDbLine
 10
3806.918545407159
 20
1056.085233563677
 30
0.0
 11
3806.918545407159
 21
1326.323347490749
 31
0.0
  0
LINE
  5
85D
330
1F
100
AcDbEntity
  8
BMK
100
AcDbLine
 10
4106.918545407157
 20
1056.085233563677
 30
0.0
 11
4106.918545407157
 21
1316.085233563678
 31
0.0
  0
LINE
  5
85E
330
1F
100
AcDbEntity
  8
STR
100
AcDbLine
 10
3626.918545407157
 20
1026.085233563678
 30
0.0
 11
4286.918545407156
 21
1026.085233563678
 31
0.0
  0
CIRCLE
  5
85F
330
1F
100
AcDbEntity
  8
STR
100
AcDbCircle
 10
3956.918545407157
 20
886.0852335636787
 30
0.0
 40
60.00000000000011
  0
LINE
  5
861
330
1F
100
AcDbEntity
  8
BMK
100
AcDbLine
 10
3846.918545407158
 20
886.0852335636787
 30
0.0
 11
4066.918545407157
 21
886.0852335636787
 31
0.0
  0
LINE
  5
863
330
1F
100
AcDbEntity
  8
BMK
100
AcDbLine
 10
3716.918545407156
 20
876.0852335636787
 30
0.0
 11
3716.918545407156
 21
1096.085233563678
 31
0.0
  0
LINE
  5
864
330
1F
100
AcDbEntity
  8
BMK
100
AcDbLine
 10
4196.918545407158
 20
876.0852335636787
 30
0.0
 11
4196.918545407158
 21
1096.085233563678
 31
0.0
  0
LINE
  5
877
330
1F
100
AcDbEntity
  8
STR
100
AcDbLine
 10
4006.91854540716
 20
2181.085233563679
 30
0.0
 11
4006.918545407159
 21
2226.085233563678
 31
0.0
  0
CIRCLE
  5
878
330
1F
100
AcDbEntity
  8
STR
100
AcDbCircle
 10
4006.918545407159
 20
2236.085233563679
 30
0.0
 40
10.0
  0
CIRCLE
  5
879
330
1F
100
AcDbEntity
  8
STR
100
AcDbCircle
 10
3906.918545407158
 20
2236.085233563679
 30
0.0
 40
10.0
  0
LINE
  5
87A
330
1F
100
AcDbEntity
  8
STR
100
AcDbLine
 10
4126.918545407157
 20
2016.085233563678
 30
0.0
 11
4126.918545407164
 21
2141.085233563678
 31
0.0
  0
LINE
  5
87B
330
1F
100
AcDbEntity
  8
STR
100
AcDbLine
 10
4076.918545407159
 20
2181.085233563679
 30
0.0
 11
4076.918545407159
 21
2141.085233563678
 31
0.0
  0
LINE
  5
87C
330
1F
100
AcDbEntity
  8
STR
100
AcDbLine
 10
3836.918545407158
 20
2181.085233563679
 30
0.0
 11
3836.918545407156
 21
2141.085233563678
 31
0.0
  0
LINE
  5
87D
330
1F
100
AcDbEntity
  8
STR
100
AcDbLine
 10
3906.918545407155
 20
2181.085233563679
 30
0.0
 11
3906.918545407158
 21
2226.085233563678
 31
0.0
  0
LINE
  5
87E
330
1F
100
AcDbEntity
  8
STR
100
AcDbLine
 10
3836.918545407158
 20
2181.085233563679
 30
0.0
 11
4076.918545407159
 21
2181.085233563679
 31
0.0
  0
LINE
  5
87F
330
1F
100
AcDbEntity
  8
STR
100
AcDbLine
 10
3786.918545407153
 20
2141.085233563678
 30
0.0
 11
4126.918545407164
 21
2141.085233563678
 31
0.0
  0
LINE
  5
880
330
1F
100
AcDbEntity
  8
STR
100
AcDbLine
 10
3786.918545407157
 20
2016.085233563678
 30
0.0
 11
3786.918545407153
 21
2141.085233563678
 31
0.0
  0
LINE
  5
881
330
1F
100
AcDbEntity
  8
STR
100
AcDbLine
 10
3786.918545407157
 20
2026.085233563678
 30
0.0
 11
4126.918545407158
 21
2026.085233563678
 31
0.0
  0
LINE
  5
882
330
1F
100
AcDbEntity
  8
STR
100
AcDbLine
 10
3786.918545407155
 20
2056.085233563678
 30
0.0
 11
4126.91854540716
 21
2056.085233563678
 31
0.0
  0
LINE
  5
883
330
1F
100
AcDbEntity
  8
STR
100
AcDbLine
 10
868.714838757284
 20
2056.085233563678
 30
0.0
 11
1048.714838757283
 21
2056.085233563678
 31
0.0
  0
LINE
  5
886
330
1F
100
AcDbEntity
  8
STR
100
AcDbLine
 10
868.7148387572893
 20
2141.085233563679
 30
0.0
 11
1048.714838757289
 21
2141.085233563679
 31
0.0
  0
LINE
  5
887
330
1F
100
AcDbEntity
  8
STR
100
AcDbLine
 10
898.7148387572915
 20
2181.085233563679
 30
0.0
 11
1018.714838757291
 21
2181.085233563679
 31
0.0
  0
LINE
  5
888
330
1F
100
AcDbEntity
  8
STR
100
AcDbLine
 10
958.7148387572915
 20
2181.085233563679
 30
0.0
 11
958.7148387572943
 21
2226.085233563679
 31
0.0
  0
CIRCLE
  5
88C
330
1F
100
AcDbEntity
  8
STR
100
AcDbCircle
 10
958.7148387572943
 20
2236.085233563679
 30
0.0
 40
10.0
  0
LINE
  5
890
330
1F
100
AcDbEntity
  8
STR
100
AcDbLine
 10
898.7148387572892
 20
2141.085233563679
 30
0.0
 11
898.7148387572915
 21
2181.085233563689
 31
0.0
  0
LINE
  5
891
330
1F
100
AcDbEntity
  8
STR
100
AcDbLine
 10
1018.714838757289
 20
2141.085233563679
 30
0.0
 11
1018.714838757291
 21
2181.085233563679
 31
0.0
  0
LINE
  5
892
330
1F
100
AcDbEntity
  8
STR
100
AcDbLine
 10
868.7148387572815
 20
2016.085233563678
 30
0.0
 11
868.7148387572889
 21
2141.08523356369
 31
0.0
  0
LINE
  5
893
330
1F
100
AcDbEntity
  8
STR
100
AcDbLine
 10
1048.714838757281
 20
2016.085233563678
 30
0.0
 11
1048.714838757289
 21
2141.085233563677
 31
0.0
  0
LINE
  5
895
330
1F
100
AcDbEntity
  8
STR
100
AcDbLine
 10
1083.714838757294
 20
1696.085233563678
 30
0.0
 11
1103.714838757293
 21
1716.085233563678
 31
0.0
  0
LINE
  5
896
330
1F
100
AcDbEntity
  8
BMK
100
AcDbLine
 10
493.7148387572947
 20
1806.085233563679
 30
0.0
 11
1203.714838757295
 21
1806.085233563679
 31
0.0
  0
LINE
  5
897
330
1F
100
AcDbEntity
  8
BMK
100
AcDbLine
 10
493.7148387572947
 20
1186.085233563678
 30
0.0
 11
1203.714838757295
 21
1186.085233563678
 31
0.0
  0
LINE
  5
89A
330
1F
100
AcDbEntity
  8
STR
100
AcDbLine
 10
493.7148387572943
 20
746.0852335636786
 30
0.0
 11
493.7148387572943
 21
976.0852335636789
 31
0.0
  0
LINE
  5
89C
330
1F
100
AcDbEntity
  8
STR
100
AcDbLine
 10
503.7148387572942
 20
1026.085233563678
 30
0.0
 11
503.7148387572942
 21
1146.085233563678
 31
0.0
  0
LINE
  5
89D
330
1F
100
AcDbEntity
  8
STR
100
AcDbLine
 10
503.7148387572942
 20
1146.085233563678
 30
0.0
 11
543.7148387572943
 21
1146.085233563678
 31
0.0
  0
LINE
  5
89E
330
1F
100
AcDbEntity
  8
STR
100
AcDbLine
 10
543.7148387572943
 20
1146.085233563678
 30
0.0
 11
543.7148387572943
 21
1026.085233563678
 31
0.0
  0
LINE
  5
8A0
330
1F
100
AcDbEntity
  8
STR
100
AcDbLine
 10
463.7148387572942
 20
966.0852335636789
 30
0.0
 11
473.7148387572942
 21
976.0852335636789
 31
0.0
  0
LINE
  5
8A1
330
1F
100
AcDbEntity
  8
STR
100
AcDbLine
 10
463.7148387572942
 20
756.0852335636787
 30
0.0
 11
473.7148387572942
 21
746.0852335636786
 31
0.0
  0
LINE
  5
8BA
330
1F
100
AcDbEntity
  8
STR
100
AcDbLine
 10
2323.714838757294
 20
746.0852335636786
 30
0.0
 11
2323.714838757294
 21
976.0852335636787
 31
0.0
  0
LINE
  5
C27
330
1F
100
AcDbEntity
  8
STR
100
AcDbLine
 10
3601.293545407157
 20
2246.085233563678
 30
0.0
 11
3393.978978505282
 21
2246.085233563678
 31
0.0
  0
LINE
  5
C28
330
1F
100
AcDbEntity
  8
STR
100
AcDbLine
 10
3596.293545407156
 20
746.0852335636786
 30
0.0
 11
3393.978978505281
 21
746.0852335636786
 31
0.0
  0
LINE
  5
C29
330
1F
100
AcDbEntity
  8
STR
100
AcDbLine
 10
3395.228978505282
 20
2226.085233563679
 30
0.0
 11
3395.228978505282
 21
766.0852335636787
 31
0.0
  0
LINE
  5
C2D
330
1F
100
AcDbEntity
  8
STR
100
AcDbLine
 10
3626.918545407157
 20
715.4602335636787
 30
0.0
 11
3626.918545407157
 21
585.9838645972627
 31
0.0
  0
LINE
  5
C2E
330
1F
100
AcDbEntity
  8
STR
100
AcDbLine
 10
4286.918545407157
 20
715.4602335636787
 30
0.0
 11
4286.918545407157
 21
585.9838645972627
 31
0.0
  0
LINE
  5
C2F
330
1F
100
AcDbEntity
  8
STR
100
AcDbLine
 10
3646.918545407157
 20
587.2338645972627
 30
0.0
 11
4266.918545407157
 21
587.2338645972627
 31
0.0
  0
LINE
  5
C33
330
1F
100
AcDbEntity
  8
STR
100
AcDbLine
 10
3631.918545407157
 20
2314.935618381135
 30
0.0
 11
3631.918545407157
 21
2415.809875505589
 31
0.0
  0
LINE
  5
C34
330
1F
100
AcDbEntity
  8
STR
100
AcDbLine
 10
4281.918545407156
 20
2314.935618381135
 30
0.0
 11
4281.918545407156
 21
2415.809875505589
 31
0.0
  0
LINE
  5
C35
330
1F
100
AcDbEntity
  8
STR
100
AcDbLine
 10
3651.918545407157
 20
2414.559875505589
 30
0.0
 11
4261.918545407157
 21
2414.559875505589
 31
0.0
  0
LINE
  5
C39
330
1F
100
AcDbEntity
  8
STR
100
AcDbLine
 10
1313.714838757293
 20
2222.661777066376
 30
0.0
 11
1313.714838757293
 21
2366.500007382058
 31
0.0
  0
LINE
  5
C3A
330
1F
100
AcDbEntity
  8
STR
100
AcDbLine
 10
543.7148387572951
 20
2222.661777066376
 30
0.0
 11
543.7148387572951
 21
2366.500007382058
 31
0.0
  0
LINE
  5
C3B
330
1F
100
AcDbEntity
  8
STR
100
AcDbLine
 10
1293.714838757293
 20
2365.250007382058
 30
0.0
 11
563.714838757295
 21
2365.250007382058
 31
0.0
  0
LINE
  5
C3F
330
1F
100
AcDbEntity
  8
STR
100
AcDbLine
 10
1313.714838757294
 20
2222.661777066376
 30
0.0
 11
1313.714838757294
 21
2477.490260730408
 31
0.0
  0
LINE
  5
C40
330
1F
100
AcDbEntity
  8
STR
100
AcDbLine
 10
463.7148387572945
 20
2222.661777066376
 30
0.0
 11
463.7148387572945
 21
2477.490260730408
 31
0.0
  0
LINE
  5
C41
330
1F
100
AcDbEntity
  8
STR
100
AcDbLine
 10
1293.714838757294
 20
2476.240260730408
 30
0.0
 11
483.7148387572945
 21
2476.240260730408
 31
0.0
  0
LINE
  5
C45
330
1F
100
AcDbEntity
  8
STR
100
AcDbLine
 10
1194.964838757294
 20
1026.085233563678
 30
0.0
 11
1436.944465276418
 21
1026.085233563678
 31
0.0
  0
LINE
  5
C46
330
1F
100
AcDbEntity
  8
STR
100
AcDbLine
 10
1435.694465276418
 20
1496.085233563678
 30
0.0
 11
1436.944465276418
 21
1496.085233563678
 31
0.0
  0
LINE
  5
C47
330
1F
100
AcDbEntity
  8
STR
100
AcDbLine
 10
1435.694465276418
 20
1046.085233563678
 30
0.0
 11
1435.694465276418
 21
1476.085233563678
 31
0.0
  0
LINE
  5
C4B
330
1F
100
AcDbEntity
  8
STR
100
AcDbLine
 10
1194.339838757294
 20
976.0852335636787
 30
0.0
 11
1320.339016515728
 21
976.0852335636787
 31
0.0
  0
LINE
  5
C4C
330
1F
100
AcDbEntity
  8
STR
100
AcDbLine
 10
1194.339838757294
 20
1026.085233563678
 30
0.0
 11
1320.339016515728
 21
1026.085233563678
 31
0.0
  0
LINE
  5
C4D
330
1F
100
AcDbEntity
  8
STR
100
AcDbLine
 10
1319.089016515728
 20
956.0852335636786
 30
0.0
 11
1319.089016515728
 21
936.0852335636787
 31
0.0
  0
LINE
  5
C4E
330
1F
100
AcDbEntity
  8
STR
100
AcDbLine
 10
1319.089016515728
 20
1046.085233563678
 30
0.0
 11
1319.089016515728
 21
1131.085233563678
 31
0.0
  0
LINE
  5
C4F
330
1F
100
AcDbEntity
  8
STR
100
AcDbLine
 10
1319.089016515728
 20
976.0852335636787
 30
0.0
 11
1319.089016515728
 21
1026.085233563678
 31
0.0
  0
LINE
  5
C53
330
1F
100
AcDbEntity
  8
STR
100
AcDbLine
 10
2450.158632232803
 20
976.0852335636787
 30
0.0
 11
2451.408632232802
 21
976.0852335636787
 31
0.0
  0
LINE
  5
C54
330
1F
100
AcDbEntity
  8
STR
100
AcDbLine
 10
2449.533632232802
 20
1496.085233563678
 30
0.0
 11
2448.908632232802
 21
1496.085233563678
 31
0.0
  0
LINE
  5
C55
330
1F
100
AcDbEntity
  8
STR
100
AcDbLine
 10
2450.158632232802
 20
996.0852335636786
 30
0.0
 11
2450.158632232803
 21
1476.085233563678
 31
0.0
  0
LINE
  5
C59
330
1F
100
AcDbEntity
  8
STR
100
AcDbLine
 10
2450.158632232802
 20
746.0852335636786
 30
0.0
 11
2451.408632232802
 21
746.0852335636786
 31
0.0
  0
LINE
  5
C5A
330
1F
100
AcDbEntity
  8
STR
100
AcDbLine
 10
2450.158632232803
 20
976.0852335636787
 30
0.0
 11
2451.408632232802
 21
976.0852335636787
 31
0.0
  0
LINE
  5
C5B
330
1F
100
AcDbEntity
  8
STR
100
AcDbLine
 10
2450.158632232803
 20
766.0852335636787
 30
0.0
 11
2450.158632232803
 21
956.0852335636786
 31
0.0
  0
LINE
  5
C5F
330
1F
100
AcDbEntity
  8
STR
100
AcDbLine
 10
2854.339838757294
 20
746.0852335636787
 30
0.0
 11
3021.198824680286
 21
746.0852335636787
 31
0.0
  0
LINE
  5
C60
330
1F
100
AcDbEntity
  8
STR
100
AcDbLine
 10
2854.339838757294
 20
1496.085233563678
 30
0.0
 11
3021.198824680286
 21
1496.085233563678
 31
0.0
  0
LINE
  5
C61
330
1F
100
AcDbEntity
  8
STR
100
AcDbLine
 10
3019.948824680286
 20
766.0852335636787
 30
0.0
 11
3019.948824680287
 21
1476.085233563678
 31
0.0
  0
LINE
  5
C65
330
1F
100
AcDbEntity
  8
STR
100
AcDbLine
 10
463.7148387572944
 20
715.4602335636788
 30
0.0
 11
463.7148387572944
 21
619.4838755549763
 31
0.0
  0
LINE
  5
C66
330
1F
100
AcDbEntity
  8
STR
100
AcDbLine
 10
2323.714838757294
 20
715.4602335636787
 30
0.0
 11
2323.714838757294
 21
619.4838755549763
 31
0.0
  0
LINE
  5
C67
330
1F
100
AcDbEntity
  8
STR
100
AcDbLine
 10
483.7148387572944
 20
620.7338755549763
 30
0.0
 11
2303.714838757294
 21
620.7338755549763
 31
0.0
  0
LINE
  5
C6B
330
1F
100
AcDbEntity
  8
STR
100
AcDbLine
 10
463.7148387572944
 20
715.4602335636788
 30
0.0
 11
463.7148387572944
 21
555.6542863558907
 31
0.0
  0
LINE
  5
C6C
330
1F
100
AcDbEntity
  8
STR
100
AcDbLine
 10
2823.714838757294
 20
715.4602335636787
 30
0.0
 11
2823.714838757294
 21
555.6542863558907
 31
0.0
  0
LINE
  5
C6D
330
1F
100
AcDbEntity
  8
STR
100
AcDbLine
 10
483.7148387572944
 20
556.9042863558906
 30
0.0
 11
2803.714838757294
 21
556.9042863558906
 31
0.0
  0
TEXT
  5
C71
330
1F
100
AcDbEntity
  8
STR
100
AcDbText
 10
1341.214838757294
 20
566.9042863558907
 30
0.0
 40
30.0
  1
2360
100
AcDbText
  0
LINE
  5
C72
330
1F
100
AcDbEntity
  8
STR
  6
BYBLOCK
 62
     0
100
AcDbLine
 10
2803.714838757294
 20
562.2632701558907
 30
0.0
 11
2823.714838757294
 21
556.9042863558906
 31
0.0
  0
LINE
  5
C73
330
1F
100
AcDbEntity
  8
STR
  6
BYBLOCK
 62
     0
100
AcDbLine
 10
2823.714838757294
 20
556.9042863558906
 30
0.0
 11
2803.714838757294
 21
551.5453025558906
 31
0.0
  0
LINE
  5
C74
330
1F
100
AcDbEntity
  8
STR
  6
BYBLOCK
 62
     0
100
AcDbLine
 10
2823.714838757294
 20
556.9042863558906
 30
0.0
 11
2803.714838757294
 21
556.9042863558906
 31
0.0
  0
LINE
  5
C75
330
1F
100
AcDbEntity
  8
STR
  6
BYBLOCK
 62
     0
100
AcDbLine
 10
483.7148387572944
 20
551.5453025558906
 30
0.0
 11
463.7148387572944
 21
556.9042863558906
 31
0.0
  0
LINE
  5
C76
330
1F
100
AcDbEntity
  8
STR
  6
BYBLOCK
 62
     0
100
AcDbLine
 10
463.7148387572944
 20
556.9042863558906
 30
0.0
 11
483.7148387572944
 21
562.2632701558907
 31
0.0
  0
LINE
  5
C77
330
1F
100
AcDbEntity
  8
STR
  6
BYBLOCK
 62
     0
100
AcDbLine
 10
463.7148387572944
 20
556.9042863558906
 30
0.0
 11
483.7148387572944
 21
556.9042863558906
 31
0.0
  0
TEXT
  5
C78
330
1F
100
AcDbEntity
  8
STR
100
AcDbText
 10
1346.214838757294
 20
630.7338755549762
 30
0.0
 40
30.0
  1
1860
100
AcDbText
  0
LINE
  5
C79
330
1F
100
AcDbEntity
  8
STR
  6
BYBLOCK
 62
     0
100
AcDbLine
 10
2303.714838757294
 20
626.0928593549763
 30
0.0
 11
2323.714838757294
 21
620.7338755549763
 31
0.0
  0
LINE
  5
C7A
330
1F
100
AcDbEntity
  8
STR
  6
BYBLOCK
 62
     0
100
AcDbLine
 10
2323.714838757294
 20
620.7338755549763
 30
0.0
 11
2303.714838757294
 21
615.3748917549762
 31
0.0
  0
LINE
  5
C7B
330
1F
100
AcDbEntity
  8
STR
  6
BYBLOCK
 62
     0
100
AcDbLine
 10
2323.714838757294
 20
620.7338755549763
 30
0.0
 11
2303.714838757294
 21
620.7338755549763
 31
0.0
  0
LINE
  5
C7C
330
1F
100
AcDbEntity
  8
STR
  6
BYBLOCK
 62
     0
100
AcDbLine
 10
483.7148387572944
 20
615.3748917549762
 30
0.0
 11
463.7148387572944
 21
620.7338755549763
 31
0.0
  0
LINE
  5
C7D
330
1F
100
AcDbEntity
  8
STR
  6
BYBLOCK
 62
     0
100
AcDbLine
 10
463.7148387572944
 20
620.7338755549763
 30
0.0
 11
483.7148387572944
 21
626.0928593549763
 31
0.0
  0
LINE
  5
C7E
330
1F
100
AcDbEntity
  8
STR
  6
BYBLOCK
 62
     0
100
AcDbLine
 10
463.7148387572944
 20
620.7338755549763
 30
0.0
 11
483.7148387572944
 21
620.7338755549763
 31
0.0
  0
TEXT
  5
C7F
330
1F
100
AcDbEntity
  8
STR
100
AcDbText
 10
3009.948824680286
 20
1083.585233563679
 30
0.0
 40
30.0
  1
750
 50
90.0
100
AcDbText
  0
LINE
  5
C80
330
1F
100
AcDbEntity
  8
STR
  6
BYBLOCK
 62
     0
100
AcDbLine
 10
3014.589840880287
 20
1476.085233563678
 30
0.0
 11
3019.948824680287
 21
1496.085233563678
 31
0.0
  0
LINE
  5
C81
330
1F
100
AcDbEntity
  8
STR
  6
BYBLOCK
 62
     0
100
AcDbLine
 10
3019.948824680287
 20
1496.085233563678
 30
0.0
 11
3025.307808480286
 21
1476.085233563678
 31
0.0
  0
LINE
  5
C82
330
1F
100
AcDbEntity
  8
STR
  6
BYBLOCK
 62
     0
100
AcDbLine
 10
3019.948824680287
 20
1496.085233563678
 30
0.0
 11
3019.948824680287
 21
1476.085233563678
 31
0.0
  0
LINE
  5
C83
330
1F
100
AcDbEntity
  8
STR
  6
BYBLOCK
 62
     0
100
AcDbLine
 10
3025.307808480286
 20
766.0852335636787
 30
0.0
 11
3019.948824680286
 21
746.0852335636787
 31
0.0
  0
LINE
  5
C84
330
1F
100
AcDbEntity
  8
STR
  6
BYBLOCK
 62
     0
100
AcDbLine
 10
3019.948824680286
 20
746.0852335636787
 30
0.0
 11
3014.589840880286
 21
766.0852335636787
 31
0.0
  0
LINE
  5
C85
330
1F
100
AcDbEntity
  8
STR
  6
BYBLOCK
 62
     0
100
AcDbLine
 10
3019.948824680286
 20
746.0852335636787
 30
0.0
 11
3019.948824680286
 21
766.0852335636787
 31
0.0
  0
TEXT
  5
C86
330
1F
100
AcDbEntity
  8
STR
100
AcDbText
 10
2440.158632232802
 20
823.585233563679
 30
0.0
 40
30.0
  1
230
 50
90.0
100
AcDbText
  0
LINE
  5
C87
330
1F
100
AcDbEntity
  8
STR
  6
BYBLOCK
 62
     0
100
AcDbLine
 10
2444.799648432803
 20
956.0852335636786
 30
0.0
 11
2450.158632232803
 21
976.0852335636787
 31
0.0
  0
LINE
  5
C88
330
1F
100
AcDbEntity
  8
STR
  6
BYBLOCK
 62
     0
100
AcDbLine
 10
2450.158632232803
 20
976.0852335636787
 30
0.0
 11
2455.517616032802
 21
956.0852335636786
 31
0.0
  0
LINE
  5
C89
330
1F
100
AcDbEntity
  8
STR
  6
BYBLOCK
 62
     0
100
AcDbLine
 10
2450.158632232803
 20
976.0852335636787
 30
0.0
 11
2450.158632232803
 21
956.0852335636786
 31
0.0
  0
LINE
  5
C8A
330
1F
100
AcDbEntity
  8
STR
  6
BYBLOCK
 62
     0
100
AcDbLine
 10
2455.517616032802
 20
766.0852335636787
 30
0.0
 11
2450.158632232803
 21
746.0852335636786
 31
0.0
  0
LINE
  5
C8B
330
1F
100
AcDbEntity
  8
STR
  6
BYBLOCK
 62
     0
100
AcDbLine
 10
2450.158632232803
 20
746.0852335636786
 30
0.0
 11
2444.799648432803
 21
766.0852335636787
 31
0.0
  0
LINE
  5
C8C
330
1F
100
AcDbEntity
  8
STR
  6
BYBLOCK
 62
     0
100
AcDbLine
 10
2450.158632232803
 20
746.0852335636786
 30
0.0
 11
2450.158632232803
 21
766.0852335636787
 31
0.0
  0
TEXT
  5
C8D
330
1F
100
AcDbEntity
  8
STR
100
AcDbText
 10
2440.158632232802
 20
1198.585233563678
 30
0.0
 40
30.0
  1
520
 50
90.0
100
AcDbText
  0
LINE
  5
C8E
330
1F
100
AcDbEntity
  8
STR
  6
BYBLOCK
 62
     0
100
AcDbLine
 10
2444.799648432803
 20
1476.085233563678
 30
0.0
 11
2450.158632232803
 21
1496.085233563678
 31
0.0
  0
LINE
  5
C8F
330
1F
100
AcDbEntity
  8
STR
  6
BYBLOCK
 62
     0
100
AcDbLine
 10
2450.158632232803
 20
1496.085233563678
 30
0.0
 11
2455.517616032802
 21
1476.085233563678
 31
0.0
  0
LINE
  5
C90
330
1F
100
AcDbEntity
  8
STR
  6
BYBLOCK
 62
     0
100
AcDbLine
 10
2450.158632232803
 20
1496.085233563678
 30
0.0
 11
2450.158632232803
 21
1476.085233563678
 31
0.0
  0
LINE
  5
C91
330
1F
100
AcDbEntity
  8
STR
  6
BYBLOCK
 62
     0
100
AcDbLine
 10
2455.517616032802
 20
996.0852335636786
 30
0.0
 11
2450.158632232802
 21
976.0852335636787
 31
0.0
  0
LINE
  5
C92
330
1F
100
AcDbEntity
  8
STR
  6
BYBLOCK
 62
     0
100
AcDbLine
 10
2450.158632232802
 20
976.0852335636787
 30
0.0
 11
2444.799648432802
 21
996.0852335636786
 31
0.0
  0
LINE
  5
C93
330
1F
100
AcDbEntity
  8
STR
  6
BYBLOCK
 62
     0
100
AcDbLine
 10
2450.158632232802
 20
976.0852335636787
 30
0.0
 11
2450.158632232802
 21
996.0852335636786
 31
0.0
  0
TEXT
  5
C94
330
1F
100
AcDbEntity
  8
STR
100
AcDbText
 10
1309.089016515728
 20
1076.085233563679
 30
0.0
 40
30.0
  1
50
 50
90.0
100
AcDbText
  0
LINE
  5
C95
330
1F
100
AcDbEntity
  8
STR
  6
BYBLOCK
 62
     0
100
AcDbLine
 10
1324.448000315729
 20
1046.085233563678
 30
0.0
 11
1319.089016515728
 21
1026.085233563678
 31
0.0
  0
LINE
  5
C96
330
1F
100
AcDbEntity
  8
STR
  6
BYBLOCK
 62
     0
100
AcDbLine
 10
1319.089016515728
 20
1026.085233563678
 30
0.0
 11
1313.730032715729
 21
1046.085233563678
 31
0.0
  0
LINE
  5
C97
330
1F
100
AcDbEntity
  8
STR
  6
BYBLOCK
 62
     0
100
AcDbLine
 10
1319.089016515728
 20
1026.085233563678
 30
0.0
 11
1319.089016515728
 21
1046.085233563678
 31
0.0
  0
LINE
  5
C98
330
1F
100
AcDbEntity
  8
STR
  6
BYBLOCK
 62
     0
100
AcDbLine
 10
1313.730032715729
 20
956.0852335636786
 30
0.0
 11
1319.089016515728
 21
976.0852335636787
 31
0.0
  0
LINE
  5
C99
330
1F
100
AcDbEntity
  8
STR
  6
BYBLOCK
 62
     0
100
AcDbLine
 10
1319.089016515728
 20
976.0852335636787
 30
0.0
 11
1324.448000315729
 21
956.0852335636786
 31
0.0
  0
LINE
  5
C9A
330
1F
100
AcDbEntity
  8
STR
  6
BYBLOCK
 62
     0
100
AcDbLine
 10
1319.089016515728
 20
976.0852335636787
 30
0.0
 11
1319.089016515728
 21
956.0852335636786
 31
0.0
  0
TEXT
  5
C9B
330
1F
100
AcDbEntity
  8
STR
100
AcDbText
 10
1425.694465276418
 20
1223.585233563678
 30
0.0
 40
30.0
  1
470
 50
90.0
100
AcDbText
  0
LINE
  5
C9C
330
1F
100
AcDbEntity
  8
STR
  6
BYBLOCK
 62
     0
100
AcDbLine
 10
1430.335481476418
 20
1476.085233563678
 30
0.0
 11
1435.694465276418
 21
1496.085233563678
 31
0.0
  0
LINE
  5
C9D
330
1F
100
AcDbEntity
  8
STR
  6
BYBLOCK
 62
     0
100
AcDbLine
 10
1435.694465276418
 20
1496.085233563678
 30
0.0
 11
1441.053449076418
 21
1476.085233563678
 31
0.0
  0
LINE
  5
C9E
330
1F
100
AcDbEntity
  8
STR
  6
BYBLOCK
 62
     0
100
AcDbLine
 10
1435.694465276418
 20
1496.085233563678
 30
0.0
 11
1435.694465276418
 21
1476.085233563678
 31
0.0
  0
LINE
  5
C9F
330
1F
100
AcDbEntity
  8
STR
  6
BYBLOCK
 62
     0
100
AcDbLine
 10
1441.053449076418
 20
1046.085233563678
 30
0.0
 11
1435.694465276418
 21
1026.085233563678
 31
0.0
  0
LINE
  5
CA0
330
1F
100
AcDbEntity
  8
STR
  6
BYBLOCK
 62
     0
100
AcDbLine
 10
1435.694465276418
 20
1026.085233563678
 30
0.0
 11
1430.335481476418
 21
1046.085233563678
 31
0.0
  0
LINE
  5
CA1
330
1F
100
AcDbEntity
  8
STR
  6
BYBLOCK
 62
     0
100
AcDbLine
 10
1435.694465276418
 20
1026.085233563678
 30
0.0
 11
1435.694465276418
 21
1046.085233563678
 31
0.0
  0
TEXT
  5
CA2
330
1F
100
AcDbEntity
  8
STR
100
AcDbText
 10
851.2148387572942
 20
2486.240260730408
 30
0.0
 40
30.0
  1
850
100
AcDbText
  0
LINE
  5
CA3
330
1F
100
AcDbEntity
  8
STR
  6
BYBLOCK
 62
     0
100
AcDbLine
 10
483.7148387572945
 20
2470.881276930408
 30
0.0
 11
463.7148387572945
 21
2476.240260730408
 31
0.0
  0
LINE
  5
CA4
330
1F
100
AcDbEntity
  8
STR
  6
BYBLOCK
 62
     0
100
AcDbLine
 10
463.7148387572945
 20
2476.240260730408
 30
0.0
 11
483.7148387572945
 21
2481.599244530408
 31
0.0
  0
LINE
  5
CA5
330
1F
100
AcDbEntity
  8
STR
  6
BYBLOCK
 62
     0
100
AcDbLine
 10
463.7148387572945
 20
2476.240260730408
 30
0.0
 11
483.7148387572945
 21
2476.240260730408
 31
0.0
  0
LINE
  5
CA6
330
1F
100
AcDbEntity
  8
STR
  6
BYBLOCK
 62
     0
100
AcDbLine
 10
1293.714838757294
 20
2481.599244530408
 30
0.0
 11
1313.714838757294
 21
2476.240260730408
 31
0.0
  0
LINE
  5
CA7
330
1F
100
AcDbEntity
  8
STR
  6
BYBLOCK
 62
     0
100
AcDbLine
 10
1313.714838757294
 20
2476.240260730408
 30
0.0
 11
1293.714838757294
 21
2470.881276930408
 31
0.0
  0
LINE
  5
CA8
330
1F
100
AcDbEntity
  8
STR
  6
BYBLOCK
 62
     0
100
AcDbLine
 10
1313.714838757294
 20
2476.240260730408
 30
0.0
 11
1293.714838757294
 21
2476.240260730408
 31
0.0
  0
TEXT
  5
CA9
330
1F
100
AcDbEntity
  8
STR
100
AcDbText
 10
891.2148387572942
 20
2375.250007382058
 30
0.0
 40
30.0
  1
770
100
AcDbText
  0
LINE
  5
CAA
330
1F
100
AcDbEntity
  8
STR
  6
BYBLOCK
 62
     0
100
AcDbLine
 10
563.714838757295
 20
2359.891023582058
 30
0.0
 11
543.7148387572951
 21
2365.250007382058
 31
0.0
  0
LINE
  5
CAB
330
1F
100
AcDbEntity
  8
STR
  6
BYBLOCK
 62
     0
100
AcDbLine
 10
543.7148387572951
 20
2365.250007382058
 30
0.0
 11
563.714838757295
 21
2370.608991182058
 31
0.0
  0
LINE
  5
CAC
330
1F
100
AcDbEntity
  8
STR
  6
BYBLOCK
 62
     0
100
AcDbLine
 10
543.7148387572951
 20
2365.250007382058
 30
0.0
 11
563.714838757295
 21
2365.250007382058
 31
0.0
  0
LINE
  5
CAD
330
1F
100
AcDbEntity
  8
STR
  6
BYBLOCK
 62
     0
100
AcDbLine
 10
1293.714838757293
 20
2370.608991182058
 30
0.0
 11
1313.714838757293
 21
2365.250007382058
 31
0.0
  0
LINE
  5
CAE
330
1F
100
AcDbEntity
  8
STR
  6
BYBLOCK
 62
     0
100
AcDbLine
 10
1313.714838757293
 20
2365.250007382058
 30
0.0
 11
1293.714838757293
 21
2359.891023582058
 31
0.0
  0
LINE
  5
CAF
330
1F
100
AcDbEntity
  8
STR
  6
BYBLOCK
 62
     0
100
AcDbLine
 10
1313.714838757293
 20
2365.250007382058
 30
0.0
 11
1293.714838757293
 21
2365.250007382058
 31
0.0
  0
TEXT
  5
CB0
330
1F
100
AcDbEntity
  8
STR
100
AcDbText
 10
3919.418545407156
 20
2424.559875505589
 30
0.0
 40
30.0
  1
650
100
AcDbText
  0
LINE
  5
CB1
330
1F
100
AcDbEntity
  8
STR
  6
BYBLOCK
 62
     0
100
AcDbLine
 10
4261.918545407157
 20
2419.918859305588
 30
0.0
 11
4281.918545407156
 21
2414.559875505589
 31
0.0
  0
LINE
  5
CB2
330
1F
100
AcDbEntity
  8
STR
  6
BYBLOCK
 62
     0
100
AcDbLine
 10
4281.918545407156
 20
2414.559875505589
 30
0.0
 11
4261.918545407157
 21
2409.200891705589
 31
0.0
  0
LINE
  5
CB3
330
1F
100
AcDbEntity
  8
STR
  6
BYBLOCK
 62
     0
100
AcDbLine
 10
4281.918545407156
 20
2414.559875505589
 30
0.0
 11
4261.918545407157
 21
2414.559875505589
 31
0.0
  0
LINE
  5
CB4
330
1F
100
AcDbEntity
  8
STR
  6
BYBLOCK
 62
     0
100
AcDbLine
 10
3651.918545407157
 20
2409.200891705589
 30
0.0
 11
3631.918545407157
 21
2414.559875505589
 31
0.0
  0
LINE
  5
CB5
330
1F
100
AcDbEntity
  8
STR
  6
BYBLOCK
 62
     0
100
AcDbLine
 10
3631.918545407157
 20
2414.559875505589
 30
0.0
 11
3651.918545407157
 21
2419.918859305588
 31
0.0
  0
LINE
  5
CB6
330
1F
100
AcDbEntity
  8
STR
  6
BYBLOCK
 62
     0
100
AcDbLine
 10
3631.918545407157
 20
2414.559875505589
 30
0.0
 11
3651.918545407157
 21
2414.559875505589
 31
0.0
  0
TEXT
  5
CB7
330
1F
100
AcDbEntity
  8
STR
100
AcDbText
 10
3919.418545407157
 20
597.2338645972627
 30
0.0
 40
30.0
  1
660
100
AcDbText
  0
LINE
  5
CB8
330
1F
100
AcDbEntity
  8
STR
  6
BYBLOCK
 62
     0
100
AcDbLine
 10
4266.918545407157
 20
592.5928483972627
 30
0.0
 11
4286.918545407157
 21
587.2338645972627
 31
0.0
  0
LINE
  5
CB9
330
1F
100
AcDbEntity
  8
STR
  6
BYBLOCK
 62
     0
100
AcDbLine
 10
4286.918545407157
 20
587.2338645972627
 30
0.0
 11
4266.918545407157
 21
581.8748807972626
 31
0.0
  0
LINE
  5
CBA
330
1F
100
AcDbEntity
  8
STR
  6
BYBLOCK
 62
     0
100
AcDbLine
 10
4286.918545407157
 20
587.2338645972627
 30
0.0
 11
4266.918545407157
 21
587.2338645972627
 31
0.0
  0
LINE
  5
CBB
330
1F
100
AcDbEntity
  8
STR
  6
BYBLOCK
 62
     0
100
AcDbLine
 10
3646.918545407157
 20
581.8748807972626
 30
0.0
 11
3626.918545407157
 21
587.2338645972627
 31
0.0
  0
LINE
  5
CBC
330
1F
100
AcDbEntity
  8
STR
  6
BYBLOCK
 62
     0
100
AcDbLine
 10
3626.918545407157
 20
587.2338645972627
 30
0.0
 11
3646.918545407157
 21
592.5928483972627
 31
0.0
  0
LINE
  5
CBD
330
1F
100
AcDbEntity
  8
STR
  6
BYBLOCK
 62
     0
100
AcDbLine
 10
3626.918545407157
 20
587.2338645972627
 30
0.0
 11
3646.918545407157
 21
587.2338645972627
 31
0.0
  0
TEXT
  5
CBE
330
1F
100
AcDbEntity
  8
STR
100
AcDbText
 10
3385.228978505281
 20
1451.085233563679
 30
0.0
 40
30.0
  1
1500
 50
90.0
100
AcDbText
  0
LINE
  5
CBF
330
1F
100
AcDbEntity
  8
STR
  6
BYBLOCK
 62
     0
100
AcDbLine
 10
3400.587962305281
 20
766.0852335636787
 30
0.0
 11
3395.228978505282
 21
746.0852335636786
 31
0.0
  0
LINE
  5
CC0
330
1F
100
AcDbEntity
  8
STR
  6
BYBLOCK
 62
     0
100
AcDbLine
 10
3395.228978505282
 20
746.0852335636786
 30
0.0
 11
3389.869994705282
 21
766.0852335636787
 31
0.0
  0
LINE
  5
CC1
330
1F
100
AcDbEntity
  8
STR
  6
BYBLOCK
 62
     0
100
AcDbLine
 10
3395.228978505282
 20
746.0852335636786
 30
0.0
 11
3395.228978505282
 21
766.0852335636787
 31
0.0
  0
LINE
  5
CC2
330
1F
100
AcDbEntity
  8
STR
  6
BYBLOCK
 62
     0
100
AcDbLine
 10
3389.869994705282
 20
2226.085233563679
 30
0.0
 11
3395.228978505282
 21
2246.085233563678
 31
0.0
  0
LINE
  5
CC3
330
1F
100
AcDbEntity
  8
STR
  6
BYBLOCK
 62
     0
100
AcDbLine
 10
3395.228978505282
 20
2246.085233563678
 30
0.0
 11
3400.587962305282
 21
2226.085233563679
 31
0.0
  0
LINE
  5
CC4
330
1F
100
AcDbEntity
  8
STR
  6
BYBLOCK
 62
     0
100
AcDbLine
 10
3395.228978505282
 20
2246.085233563678
 30
0.0
 11
3395.228978505282
 21
2226.085233563679
 31
0.0
  0
VIEWPORT
  5
518
102
{ACAD_XDICTIONARY
360
CCF
102
}
330
50
100
AcDbEntity
 67
     1
  8
0
100
AcDbViewport
 10
142.6104125976562
 20
99.11291408538819
 30
0.0
 40
314.1924854736328
 41
243.5479638950893
 68
     1
 69
     1
1001
ACAD
1000
MVIEW
1002
{
1070
    16
1010
0.0
1020
0.0
1030
0.0
1010
0.0
1020
0.0
1030
1.0
1040
0.0
1040
243.5479638950893
1040
142.6104125976562
1040
99.11291408538819
1040
50.0
1040
0.0
1040
0.0
1070
     0
1070
  1000
1070
     1
1070
     1
1070
     0
1070
     0
1070
     0
1070
     0
1040
0.0
1040
0.0
1040
0.0
1040
10.0
1040
10.0
1040
10.0
1040
10.0
1070
     0
1002
{
1002
}
1002
}
  0
VIEWPORT
  5
51A
102
{ACAD_XDICTIONARY
360
CD1
102
}
330
50
100
AcDbEntity
 67
     1
  8
STR
100
AcDbViewport
 10
143.9548991110736
 20
99.2243808176318
 30
0.0
 40
293.8822579000949
 41
206.6024074552712
 68
     2
 69
     2
1001
ACAD
1000
MVIEW
1002
{
1070
    16
1010
0.0
1020
0.0
1030
0.0
1010
0.0
1020
0.0
1030
1.0
1040
0.0
1040
4132.048149105425
1040
2244.183581552963
1040
1432.191647440248
1040
50.0
1040
0.0
1040
0.0
1070
     0
1070
  1000
1070
     1
1070
     3
1070
     0
1070
     0
1070
     0
1070
     0
1040
0.0
1040
0.0
1040
0.0
1040
10.0
1040
10.0
1040
10.0
1040
10.0
1070
     0
1002
{
1002
}
1002
}
  0
ENDSEC
  0
SECTION
  2
OBJECTS
  0
DICTIONARY
  5
C
330
0
100
AcDbDictionary
  3
ACAD_COLOR
350
6B
  3
ACAD_GROUP
350
D
  3
ACAD_LAYOUT
350
1A
  3
ACAD_MATERIAL
350
6A
  3
ACAD_MLINESTYLE
350
17
  3
ACAD_PLOTSETTINGS
350
19
  3
ACAD_PLOTSTYLENAME
350
E
  3
ACDBHEADERROUNDTRIPXREC
350
D23
  3
ACDBVARIABLEDICTIONARY
350
5E
  0
DICTIONARY
  5
D44
330
1F
100
AcDbDictionary
280
     1
  3
ACAD_LAYOUTSELFREF
360
D45
  0
DICTIONARY
  5
D46
330
50
100
AcDbDictionary
280
     1
  3
ACAD_LAYOUTSELFREF
360
D47
  0
DICTIONARY
  5
CCF
330
518
100
AcDbDictionary
280
     1
  3
ACAD_XREC_ROUNDTRIP
360
CD0
  0
DICTIONARY
  5
CD1
330
51A
100
AcDbDictionary
280
     1
  3
ACAD_XREC_ROUNDTRIP
360
CD2
  0
DICTIONARY
  5
6B
102
{ACAD_REACTORS
330
C
102
}
330
C
100
AcDbDictionary
  0
DICTIONARY
  5
D
102
{ACAD_REACTORS
330
C
102
}
330
C
100
AcDbDictionary
  0
DICTIONARY
  5
1A
102
{ACAD_REACTORS
330
C
102
}
330
C
100
AcDbDictionary
  0
DICTIONARY
  5
6A
102
{ACAD_REACTORS
330
C
102
}
330
C
100
AcDbDictionary
  0
DICTIONARY
  5
17
102
{ACAD_REACTORS
330
C
102
}
330
C
100
AcDbDictionary
  3
STANDARD
350
18
  0
DICTIONARY
  5
19
102
{ACAD_REACTORS
330
C
102
}
330
C
100
AcDbDictionary
  0
ACDBDICTIONARYWDFLT
  5
E
102
{ACAD_REACTORS
330
C
102
}
330
C
100
AcDbDictionary
281
     1
  3
Normal
350
F
100
AcDbDictionaryWithDefault
340
F
  0
DICTIONARY
  5
D23
102
{ACAD_REACTORS
330
C
102
}
330
C
100
AcDbDictionary
  3
CEPSNTYPE
350
D2D
  3
DIMSTYLEDATA
350
D31
  3
FINGERPRINTGUID
350
D2E
  3
HYPERLINKBASE
350
D26
  3
INSUNITS
350
D2C
  3
LAYOUTDICT
350
D28
  3
LWETCUNION
350
D2B
  3
PLOTSETDICT
350
D29
  3
PLOTSTYLNAMDICT
350
D2A
  3
PSVPSCALE
350
D30
  3
PUCSBASE
350
D34
  3
PUCSORGBACK
350
D3A
  3
PUCSORGBOTTOM
350
D36
  3
PUCSORGFRONT
350
D39
  3
PUCSORGLEFT
350
D37
  3
PUCSORGRIGHT
350
D38
  3
PUCSORGTOP
350
D35
  3
PUCSORTHOREF
350
D32
  3
PUCSORTHOVIEW
350
D33
  3
STYLESHEET
350
D27
  3
TSTACKALIGN
350
D24
  3
TSTACKSIZE
350
D25
  3
UCSBASE
350
D3D
  3
UCSORGBACK
350
D43
  3
UCSORGBOTTOM
350
D3F
  3
UCSORGFRONT
350
D42
  3
UCSORGLEFT
350
D40
  3
UCSORGRIGHT
350
D41
  3
UCSORGTOP
350
D3E
  3
UCSORTHOREF
350
D3B
  3
UCSORTHOVIEW
350
D3C
  3
VERSIONGUID
350
D2F
  0
DICTIONARY
  5
5E
102
{ACAD_REACTORS
330
C
102
}
330
C
100
AcDbDictionary
  3
DIMASSOC
350
5F
  3
HIDETEXT
350
63
  3
PROJECTNAME
350
CD7
  0
XRECORD
  5
D45
102
{ACAD_REACTORS
330
D44
102
}
330
D44
100
AcDbXrecord
340
1F
  0
XRECORD
  5
D47
102
{ACAD_REACTORS
330
D46
102
}
330
D46
100
AcDbXrecord
340
50
  0
XRECORD
  5
CD0
102
{ACAD_REACTORS
330
CCF
102
}
330
CCF
100
AcDbXrecord
102
SHADEPLOT
 70
     0
  0
XRECORD
  5
CD2
102
{ACAD_REACTORS
330
CD1
102
}
330
CD1
100
AcDbXrecord
102
SHADEPLOT
 70
     0
  0
MLINESTYLE
  5
18
102
{ACAD_REACTORS
330
17
102
}
330
17
100
AcDbMlineStyle
  2
STANDARD
 70
     0
  3

 62
   256
 51
90.0
 52
90.0
 71
     2
 49
0.5
 62
   256
  6
BYLAYER
 49
-0.5
 62
   256
  6
BYLAYER
  0
ACDBPLACEHOLDER
  5
F
102
{ACAD_REACTORS
330
E
102
}
330
E
100
AcDbPlaceHolder
280
     0
  0
XRECORD
  5
D2D
102
{ACAD_REACTORS
330
D23
102
}
330
D23
100
AcDbXrecord
 90
        0
  0
XRECORD
  5
D31
102
{ACAD_REACTORS
330
D23
102
}
330
D23
100
AcDbXrecord
1000
DSTYLE
1002
{
1070
   278
 70
    44
1070
   289
 70
     2
1070
   341
340
100
1070
   342
340
FA
1002
}
  0
XRECORD
  5
D2E
102
{ACAD_REACTORS
330
D23
102
}
330
D23
100
AcDbXrecord
  1
{FDEAD578-A652-11D2-9A35-0060089B3A3F}
  0
XRECORD
  5
D26
102
{ACAD_REACTORS
330
D23
102
}
330
D23
100
AcDbXrecord
  1

  0
XRECORD
  5
D2C
102
{ACAD_REACTORS
330
D23
102
}
330
D23
100
AcDbXrecord
 90
        4
  0
XRECORD
  5
D28
102
{ACAD_REACTORS
330
D23
102
}
330
D23
100
AcDbXrecord
340
1A
  0
XRECORD
  5
D2B
102
{ACAD_REACTORS
330
D23
102
}
330
D23
100
AcDbXrecord
 90
    10781
  0
XRECORD
  5
D29
102
{ACAD_REACTORS
330
D23
102
}
330
D23
100
AcDbXrecord
340
19
  0
XRECORD
  5
D2A
102
{ACAD_REACTORS
330
D23
102
}
330
D23
100
AcDbXrecord
340
E
  0
XRECORD
  5
D30
102
{ACAD_REACTORS
330
D23
102
}
330
D23
100
AcDbXrecord
 40
0.0
  0
XRECORD
  5
D34
102
{ACAD_REACTORS
330
D23
102
}
330
D23
100
AcDbXrecord
340
0
  0
XRECORD
  5
D3A
102
{ACAD_REACTORS
330
D23
102
}
330
D23
100
AcDbXrecord
 10
0.0
 20
0.0
 30
0.0
  0
XRECORD
  5
D36
102
{ACAD_REACTORS
330
D23
102
}
330
D23
100
AcDbXrecord
 10
0.0
 20
0.0
 30
0.0
  0
XRECORD
  5
D39
102
{ACAD_REACTORS
330
D23
102
}
330
D23
100
AcDbXrecord
 10
0.0
 20
0.0
 30
0.0
  0
XRECORD
  5
D37
102
{ACAD_REACTORS
330
D23
102
}
330
D23
100
AcDbXrecord
 10
0.0
 20
0.0
 30
0.0
  0
XRECORD
  5
D38
102
{ACAD_REACTORS
330
D23
102
}
330
D23
100
AcDbXrecord
 10
0.0
 20
0.0
 30
0.0
  0
XRECORD
  5
D35
102
{ACAD_REACTORS
330
D23
102
}
330
D23
100
AcDbXrecord
 10
0.0
 20
0.0
 30
0.0
  0
XRECORD
  5
D32
102
{ACAD_REACTORS
330
D23
102
}
330
D23
100
AcDbXrecord
340
0
  0
XRECORD
  5
D33
102
{ACAD_REACTORS
330
D23
102
}
330
D23
100
AcDbXrecord
 70
     0
  0
XRECORD
  5
D27
102
{ACAD_REACTORS
330
D23
102
}
330
D23
100
AcDbXrecord
  1

  0
XRECORD
  5
D24
102
{ACAD_REACTORS
330
D23
102
}
330
D23
100
AcDbXrecord
 90
        1
  0
XRECORD
  5
D25
102
{ACAD_REACTORS
330
D23
102
}
330
D23
100
AcDbXrecord
 90
       70
  0
XRECORD
  5
D3D
102
{ACAD_REACTORS
330
D23
102
}
330
D23
100
AcDbXrecord
340
0
  0
XRECORD
  5
D43
102
{ACAD_REACTORS
330
D23
102
}
330
D23
100
AcDbXrecord
 10
0.0
 20
0.0
 30
0.0
  0
XRECORD
  5
D3F
102
{ACAD_REACTORS
330
D23
102
}
330
D23
100
AcDbXrecord
 10
0.0
 20
0.0
 30
0.0
  0
XRECORD
  5
D42
102
{ACAD_REACTORS
330
D23
102
}
330
D23
100
AcDbXrecord
 10
0.0
 20
0.0
 30
0.0
  0
XRECORD
  5
D40
102
{ACAD_REACTORS
330
D23
102
}
330
D23
100
AcDbXrecord
 10
0.0
 20
0.0
 30
0.0
  0
XRECORD
  5
D41
102
{ACAD_REACTORS
330
D23
102
}
330
D23
100
AcDbXrecord
 10
0.0
 20
0.0
 30
0.0
  0
XRECORD
  5
D3E
102
{ACAD_REACTORS
330
D23
102
}
330
D23
100
AcDbXrecord
 10
0.0
 20
0.0
 30
0.0
  0
XRECORD
  5
D3B
102
{ACAD_REACTORS
330
D23
102
}
330
D23
100
AcDbXrecord
340
0
  0
XRECORD
  5
D3C
102
{ACAD_REACTORS
330
D23
102
}
330
D23
100
AcDbXrecord
 70
     0
  0
XRECORD
  5
D2F
102
{ACAD_REACTORS
330
D23
102
}
330
D23
100
AcDbXrecord
  1
{C91AEBB4-0C63-4084-B841-B1F0EF953A6B}
  0
DICTIONARYVAR
  5
5F
102
{ACAD_REACTORS
330
5E
102
}
330
5E
100
DictionaryVariables
280
     0
  1
2
  0
DICTIONARYVAR
  5
63
102
{ACAD_REACTORS
330
5E
102
}
330
5E
100
DictionaryVariables
280
     0
  1
1
  0
DICTIONARYVAR
  5
CD7
102
{ACAD_REACTORS
330
5E
102
}
330
5E
100
DictionaryVariables
280
     0
  1

  0
ENDSEC
  0
EOF
