  0
SECTION
  2
HEADER
  9
$ACADVER
  1
AC1009
  9
$INSBASE
 10
0
 20
0
 30
0
  9
$EXTMIN
 10
0
 20
0
  9
$EXTMAX
 10
8910
 20
6300
  9
$LIMMIN
 10
0
 20
0
  9
$LIMMAX
 10
8910
 20
6300
  9
$LTSCALE
 40
30
  0
ENDSEC
  0
SECTION
  2
TABLES
  0
TABLE
  2
LTYPE
 70
     9
  0
LTYPE
  2
CONTINUOUS
 70
    64
  3
実線
 72
    65
 73
     0
 40
0.0
  0
LTYPE
  2
DASHED1
 70
    64
  3
--  --  --  --  --  --  --  --  
 72
    65
 73
     2
 40
2.5
 49
1.25
 49
-1.25
  0
LTYPE
  2
DASHED2
 70
    64
  3
----    ----    ----    ----    
 72
    65
 73
     2
 40
5.0
 49
2.5
 49
-2.5
  0
LTYPE
  2
DASHED3
 70
    64
  3
------  ------  ------  ------  
 72
    65
 73
     2
 40
5.0
 49
3.75
 49
-1.25
  0
LTYPE
  2
CENTER1
 70
    64
  3
----- - ----- - ----- - ----- - 
 72
    65
 73
     4
 40
10.0
 49
6.25
 49
-1.25
 49
1.25
 49
-1.25
  0
LTYPE
  2
CENTER2
 70
    64
  3
----------  --  ----------  --  
 72
    65
 73
     4
 40
20.0
 49
12.5
 49
-2.5
 49
2.5
 49
-2.5
  0
LTYPE
  2
PHANTOM1
 70
    64
  3
--- - - --- - - --- - - --- - - 
 72
    65
 73
     6
 40
10.0
 49
3.25
 49
-1.25
 49
1.25
 49
-1.25
 49
1.25
 49
-1.25
  0
LTYPE
  2
PHANTOM2
 70
    64
  3
--------  -  -  --------  -  -  
 72
    65
 73
     6
 40
20.0
 49
10.0
 49
-2.5
 49
1.25
 49
-2.5
 49
1.25
 49
-2.5
  0
LTYPE
  2
DOT
 70
    64
  3
-   -   -   -   -   -   -   -   
 72
    65
 73
     2
 40
2.5
 49
0.625
 49
-1.875
  0
LTYPE
  2
DUMMY
 70
    64
  3
ダミー
 72
    65
 73
     0
 40
0.0
  0
LTYPE
  2
RAND1
 70
    64
  3
----- - ----- - ----- - ----- - 
 72
    65
 73
     4
 40
10.0
 49
6.25
 49
-1.25
 49
1.25
 49
-1.25
  0
LTYPE
  2
RAND2
 70
    64
  3
----------  --  ----------  --  
 72
    65
 73
     4
 40
20.0
 49
12.5
 49
-2.5
 49
2.5
 49
-2.5
  0
LTYPE
  2
RAND3
 70
    64
  3
--- - - --- - - --- - - --- - - 
 72
    65
 73
     6
 40
10.0
 49
3.25
 49
-1.25
 49
1.25
 49
-1.25
 49
1.25
 49
-1.25
  0
LTYPE
  2
RAND4
 70
    64
  3
--------  -  -  --------  -  -  
 72
    65
 73
     6
 40
20.0
 49
10.0
 49
-2.5
 49
1.25
 49
-2.5
 49
1.25
 49
-2.5
  0
LTYPE
  2
RAND5
 70
    64
  3
----- - ----- - ----- - ----- - 
 72
    65
 73
     4
 40
10.0
 49
6.25
 49
-1.25
 49
1.25
 49
-1.25
  0
LTYPE
  2
LONG1
 70
    64
  3
----------  --  ----------  --  
 72
    65
 73
     4
 40
20.0
 49
12.5
 49
-2.5
 49
2.5
 49
-2.5
  0
LTYPE
  2
LONG2
 70
    64
  3
--- - - --- - - --- - - --- - - 
 72
    65
 73
     6
 40
10.0
 49
3.25
 49
-1.25
 49
1.25
 49
-1.25
 49
1.25
 49
-1.25
  0
LTYPE
  2
LONG3
 70
    64
  3
--------  -  -  --------  -  -  
 72
    65
 73
     6
 40
20.0
 49
10.0
 49
-2.5
 49
1.25
 49
-2.5
 49
1.25
 49
-2.5
  0
LTYPE
  2
LONG4
 70
    64
  3
----- - ----- - ----- - ----- - 
 72
    65
 73
     4
 40
10.0
 49
6.25
 49
-1.25
 49
1.25
 49
-1.25
  0
LTYPE
  2
LONG5
 70
    64
  3
----------  --  ----------  --  
 72
    65
 73
     4
 40
20.0
 49
12.5
 49
-2.5
 49
2.5
 49
-2.5
  0
ENDTAB
  0
TABLE
  2
STYLE
  5
3
100
AcDbSymbolTable
 70
     1
  0
STYLE
  5
10
100
AcDbSymbolTableRecord
100
AcDbTextStyleTableRecord
  2
STANDARD
 70
     0
 40
0.0
 41
1.0
 50
0.0
 71
     0
 42
0.2
  3
txt
  4
bigfont.shx
  0
STYLE
  5
26
100
AcDbSymbolTableRecord
100
AcDbTextStyleTableRecord
  2
TATEGAKI
 70
    68
 40
0.0
 41
1.0
 50
0.0
 71
     0
 42
1.0
  3
txt
  4
bigfont.shx
  0
ENDTAB
  0
TABLE
  2
LAYER
 70
    4
  0
LAYER
  2
_0-0_0
 70
   64
 62
    7
  6
CONTINUOUS
  0
LAYER
  2
_0-1_BMK
 70
   64
 62
    7
  6
CONTINUOUS
  0
LAYER
  2
_0-3_STR
 70
   64
 62
    7
  6
CONTINUOUS
  0
LAYER
  2
ADD_LINE
 70
   64
 62
    7
  6
CONTINUOUS
  0
ENDTAB
  0
ENDSEC
  0
SECTION
  2
BLOCKS
  0
ENDSEC
  0
SECTION
  2
ENTITIES
  0
LINE
  8
_0-3_STR
  6
CONTINUOUS
 62
    7
 10
6293.0502
 20
2314.8731
 11
5293.0502
 21
2314.8731
  0
LINE
  8
_0-3_STR
  6
CONTINUOUS
 62
    7
 10
5353.0502
 20
2689.9458
 11
5353.0502
 21
3333.2523
  0
LINE
  8
_0-3_STR
  6
CONTINUOUS
 62
    7
 10
3037.6768
 20
2846.5469
 11
3037.6768
 21
2318.2393
  0
LINE
  8
_0-3_STR
  6
CONTINUOUS
 62
    7
 10
2388.0309
 20
1704.1099
 11
4605.0309
 21
1704.1099
  0
LINE
  8
_0-3_STR
  6
CONTINUOUS
 62
    7
 10
2760.4615
 20
3460.0131
 11
2760.4615
 21
2318.2393
  0
LINE
  8
_0-3_STR
  6
CONTINUOUS
 62
    7
 10
2879.5161
 20
2318.1961
 11
2721.3555
 21
2318.1961
  0
LINE
  8
_0-1_BMK
  6
CENTER2
 62
    1
 10
4806.9254
 20
2985.0131
 11
2195.388
 21
2985.0131
  0
LINE
  8
_0-3_STR
  6
CONTINUOUS
 62
    7
 10
2760.4615
 20
3366.5256
 11
2577.8306
 21
3366.5256
  0
LINE
  8
_0-3_STR
  6
CONTINUOUS
 62
    7
 10
2577.8306
 20
3171.3995
 11
2760.4615
 21
3171.3995
  0
LINE
  8
_0-3_STR
  6
CONTINUOUS
 62
    7
 10
2577.8306
 20
3056.2559
 11
2760.4615
 21
3056.2559
  0
LINE
  8
_0-3_STR
  6
CONTINUOUS
 62
    7
 10
2577.8306
 20
2985.0131
 11
2760.4615
 21
2985.0131
  0
LINE
  8
_0-3_STR
  6
CONTINUOUS
 62
    7
 10
2577.8306
 20
2913.7702
 11
2760.4615
 21
2913.7702
  0
LINE
  8
_0-3_STR
  6
CONTINUOUS
 62
    7
 10
2760.4615
 20
3460.0131
 11
2805.1938
 21
3460.0131
  0
LINE
  8
_0-3_STR
  6
CONTINUOUS
 62
    7
 10
2879.5161
 20
3438.2088
 11
2805.1938
 21
3438.2088
  0
LINE
  8
_0-3_STR
  6
CONTINUOUS
 62
    7
 10
2879.5161
 20
3438.2088
 11
2953.8384
 21
3438.2088
  0
LINE
  8
_0-3_STR
  6
CONTINUOUS
 62
    7
 10
2998.5707
 20
3460.0131
 11
2953.8384
 21
3460.0131
  0
LINE
  8
_0-3_STR
  6
CONTINUOUS
 62
    7
 10
3068.0309
 20
3426.304
 11
2998.5707
 21
3426.304
  0
LINE
  8
_0-3_STR
  6
CONTINUOUS
 62
    7
 10
3068.0309
 20
3426.304
 11
3068.0309
 21
2699.6113
  0
LINE
  8
_0-3_STR
  6
CONTINUOUS
 62
    7
 10
3068.0309
 20
2699.6113
 11
3037.6768
 21
2699.6113
  0
LINE
  8
_0-3_STR
  6
CONTINUOUS
 62
    7
 10
2760.4615
 20
2846.5469
 11
2721.3555
 21
2846.5469
  0
LINE
  8
_0-3_STR
  6
CONTINUOUS
 62
    7
 10
2998.5707
 20
2846.5469
 11
3037.6768
 21
2846.5469
  0
LINE
  8
_0-1_BMK
  6
CENTER2
 62
    1
 10
5793.0502
 20
2573.5006
 11
5793.0502
 21
3558.7673
  0
LINE
  8
_0-1_BMK
  6
CENTER2
 62
    1
 10
5193.4695
 20
2985.0131
 11
6555.6082
 21
2985.0131
  0
LINE
  8
_0-3_STR
  6
CONTINUOUS
 62
    7
 10
5513.7787
 20
3460.0131
 11
5353.0502
 21
3333.2523
  0
LINE
  8
_0-3_STR
  6
CONTINUOUS
 62
    7
 10
6072.3217
 20
3460.0131
 11
6233.0502
 21
3333.2523
  0
LINE
  8
_0-3_STR
  6
CONTINUOUS
 62
    7
 10
6233.0502
 20
2689.9458
 11
6233.0502
 21
3333.2523
  0
CIRCLE
  8
_0-3_STR
  6
CONTINUOUS
 62
    7
 10
5793.0502
 20
2985.0131
 40
47.56389
  0
CIRCLE
  8
_0-3_STR
  6
CONTINUOUS
 62
    7
 10
5793.0502
 20
2985.0131
 40
143.38988
  0
CIRCLE
  8
_0-3_STR
  6
CONTINUOUS
 62
    7
 10
5793.0502
 20
2985.0131
 40
263.59021
  0
CIRCLE
  8
_0-3_STR
  6
CONTINUOUS
 62
    7
 10
5793.0502
 20
2985.0131
 40
381.51251
  0
LINE
  8
_0-3_STR
  6
CONTINUOUS
 62
    7
 10
5513.7787
 20
3460.0131
 11
6076.929
 21
3460.0131
  0
LINE
  8
_0-3_STR
  6
CONTINUOUS
 62
    7
 10
5715.8464
 20
3325.8071
 11
5715.8464
 21
3171.3995
  0
LINE
  8
_0-3_STR
  6
CONTINUOUS
 62
    7
 10
5870.254
 20
3325.8071
 11
5870.254
 21
3171.3995
  0
LINE
  8
_0-1_BMK
  6
CENTER2
 62
    1
 10
5908.6637
 20
3100.6266
 11
6051.6504
 21
3243.6133
  0
LINE
  8
_0-3_STR
  6
CONTINUOUS
 62
    7
 10
5353.0502
 20
2846.5469
 11
5437.5521
 21
2846.5469
  0
LINE
  8
_0-3_STR
  6
CONTINUOUS
 62
    7
 10
6148.5483
 20
2846.5469
 11
6233.0502
 21
2846.5469
  0
CIRCLE
  8
_0-3_STR
  6
CONTINUOUS
 62
    7
 10
5793.0502
 20
3248.6033
 40
57.203785
  0
LINE
  8
_0-3_STR
  6
CONTINUOUS
 62
    7
 10
5870.254
 20
3325.8071
 11
5715.8464
 21
3325.8071
  0
LINE
  8
_0-3_STR
  6
CONTINUOUS
 62
    7
 10
5497.4811
 20
3171.3995
 11
5606.6638
 21
3062.2169
  0
LINE
  8
_0-3_STR
  6
CONTINUOUS
 62
    7
 10
5606.6638
 20
3280.5821
 11
5715.8464
 21
3171.3995
  0
CIRCLE
  8
_0-3_STR
  6
CONTINUOUS
 62
    7
 10
5606.6638
 20
3171.3995
 40
57.203785
  0
LINE
  8
_0-3_STR
  6
CONTINUOUS
 62
    7
 10
5606.6638
 20
3280.5821
 11
5497.4811
 21
3171.3995
  0
LINE
  8
_0-3_STR
  6
CONTINUOUS
 62
    7
 10
5452.2562
 20
2907.8093
 11
5606.6638
 21
2907.8093
  0
LINE
  8
_0-3_STR
  6
CONTINUOUS
 62
    7
 10
5452.2562
 20
3062.2169
 11
5606.6638
 21
3062.2169
  0
CIRCLE
  8
_0-3_STR
  6
CONTINUOUS
 62
    7
 10
5529.46
 20
2985.0131
 40
57.203785
  0
LINE
  8
_0-3_STR
  6
CONTINUOUS
 62
    7
 10
5452.2562
 20
3062.2169
 11
5452.2562
 21
2907.8093
  0
LINE
  8
_0-3_STR
  6
CONTINUOUS
 62
    7
 10
5606.6638
 20
2689.444
 11
5715.8464
 21
2798.6266
  0
LINE
  8
_0-3_STR
  6
CONTINUOUS
 62
    7
 10
5497.4811
 20
2798.6266
 11
5606.6638
 21
2907.8093
  0
CIRCLE
  8
_0-3_STR
  6
CONTINUOUS
 62
    7
 10
5606.6638
 20
2798.6266
 40
57.203785
  0
LINE
  8
_0-3_STR
  6
CONTINUOUS
 62
    7
 10
5497.4811
 20
2798.6266
 11
5606.6638
 21
2689.444
  0
LINE
  8
_0-3_STR
  6
CONTINUOUS
 62
    7
 10
5870.254
 20
2644.2191
 11
5870.254
 21
2798.6266
  0
LINE
  8
_0-3_STR
  6
CONTINUOUS
 62
    7
 10
5715.8464
 20
2644.2191
 11
5715.8464
 21
2798.6266
  0
CIRCLE
  8
_0-3_STR
  6
CONTINUOUS
 62
    7
 10
5793.0502
 20
2721.4229
 40
57.203785
  0
LINE
  8
_0-3_STR
  6
CONTINUOUS
 62
    7
 10
6088.6193
 20
2798.6266
 11
5979.4366
 21
2907.8093
  0
LINE
  8
_0-3_STR
  6
CONTINUOUS
 62
    7
 10
5979.4366
 20
2689.444
 11
5870.254
 21
2798.6266
  0
CIRCLE
  8
_0-3_STR
  6
CONTINUOUS
 62
    7
 10
5979.4366
 20
2798.6266
 40
57.203785
  0
LINE
  8
_0-3_STR
  6
CONTINUOUS
 62
    7
 10
5979.4366
 20
2689.444
 11
6088.6193
 21
2798.6266
  0
LINE
  8
_0-3_STR
  6
CONTINUOUS
 62
    7
 10
6133.8442
 20
3062.2169
 11
5979.4366
 21
3062.2169
  0
LINE
  8
_0-3_STR
  6
CONTINUOUS
 62
    7
 10
6133.8442
 20
2907.8093
 11
5979.4366
 21
2907.8093
  0
CIRCLE
  8
_0-3_STR
  6
CONTINUOUS
 62
    7
 10
6056.6404
 20
2985.0131
 40
57.203785
  0
LINE
  8
_0-3_STR
  6
CONTINUOUS
 62
    7
 10
6133.8442
 20
2907.8093
 11
6133.8442
 21
3062.2169
  0
LINE
  8
_0-3_STR
  6
CONTINUOUS
 62
    7
 10
5979.4366
 20
3280.5821
 11
5870.254
 21
3171.3995
  0
LINE
  8
_0-3_STR
  6
CONTINUOUS
 62
    7
 10
6088.6193
 20
3171.3995
 11
5979.4366
 21
3062.2169
  0
CIRCLE
  8
_0-3_STR
  6
CONTINUOUS
 62
    7
 10
5979.4366
 20
3171.3995
 40
57.203785
  0
LINE
  8
_0-3_STR
  6
CONTINUOUS
 62
    7
 10
6088.6193
 20
3171.3995
 11
5979.4366
 21
3280.5821
  0
LINE
  8
_0-1_BMK
  6
CENTER2
 62
    1
 10
5677.4367
 20
3100.6266
 11
5534.45
 21
3243.6133
  0
LINE
  8
_0-1_BMK
  6
CENTER2
 62
    1
 10
5677.4367
 20
2869.3995
 11
5534.45
 21
2726.4129
  0
LINE
  8
_0-1_BMK
  6
CENTER2
 62
    1
 10
5908.6637
 20
2869.3995
 11
6051.6504
 21
2726.4129
  0
LINE
  8
_0-3_STR
  6
CONTINUOUS
 62
    7
 10
2760.4615
 20
3325.8071
 11
2577.8306
 21
3325.8071
  0
LINE
  8
_0-3_STR
  6
CONTINUOUS
 62
    7
 10
5715.8464
 20
3171.3995
 11
5606.6638
 21
3062.2169
  0
LINE
  8
_0-3_STR
  6
CONTINUOUS
 62
    7
 10
5606.6638
 20
3062.2169
 11
5606.6638
 21
2907.8093
  0
LINE
  8
_0-3_STR
  6
CONTINUOUS
 62
    7
 10
5606.6638
 20
2907.8093
 11
5715.8464
 21
2798.6266
  0
LINE
  8
_0-3_STR
  6
CONTINUOUS
 62
    7
 10
5715.8464
 20
2798.6266
 11
5870.254
 21
2798.6266
  0
LINE
  8
_0-3_STR
  6
CONTINUOUS
 62
    7
 10
5870.254
 20
2798.6266
 11
5979.4366
 21
2907.8093
  0
LINE
  8
_0-3_STR
  6
CONTINUOUS
 62
    7
 10
5979.4366
 20
2907.8093
 11
5979.4366
 21
3062.2169
  0
LINE
  8
_0-3_STR
  6
CONTINUOUS
 62
    7
 10
5979.4366
 20
3062.2169
 11
5870.254
 21
3171.3995
  0
LINE
  8
_0-3_STR
  6
CONTINUOUS
 62
    7
 10
5870.254
 20
3171.3995
 11
5715.8464
 21
3171.3995
  0
LINE
  8
_0-3_STR
  6
CONTINUOUS
 62
    7
 10
2998.5707
 20
2819.9714
 11
3025.1463
 21
2846.5469
  0
LINE
  8
_0-3_STR
  6
CONTINUOUS
 62
    7
 10
2998.5707
 20
2766.0899
 11
3037.6768
 21
2805.1959
  0
LINE
  8
_0-3_STR
  6
CONTINUOUS
 62
    7
 10
2998.5707
 20
2658.3268
 11
3037.6768
 21
2697.4329
  0
LINE
  8
_0-3_STR
  6
CONTINUOUS
 62
    7
 10
6526.2332
 20
2985.0131
 11
6525.6082
 21
2985.0131
  0
LINE
  8
_0-3_STR
  6
CONTINUOUS
 62
    7
 10
6294.3002
 20
2210.0131
 11
6528.1082
 21
2210.0131
  0
LINE
  8
_0-3_STR
  6
CONTINUOUS
 62
    7
 10
6263.6752
 20
3460.0131
 11
6710.2193
 21
3460.0131
  0
LINE
  8
_0-3_STR
  6
CONTINUOUS
 62
    7
 10
6293.6752
 20
2210.0131
 11
6710.2193
 21
2210.0131
  0
LINE
  8
_0-3_STR
  6
CONTINUOUS
 62
    7
 10
5353.0502
 20
3490.6381
 11
5353.0502
 21
3697.0673
  0
LINE
  8
_0-3_STR
  6
CONTINUOUS
 62
    7
 10
6233.0502
 20
3490.6381
 11
6233.0502
 21
3697.0673
  0
LINE
  8
_0-3_STR
  6
CONTINUOUS
 62
    7
 10
5373.0502
 20
3695.8173
 11
6213.0502
 21
3695.8173
  0
LINE
  8
_0-3_STR
  6
CONTINUOUS
 62
    7
 10
3625.6684
 20
2985.0131
 11
3845.4046
 21
2985.0131
  0
LINE
  8
_0-3_STR
  6
CONTINUOUS
 62
    7
 10
3068.0309
 20
3456.929
 11
3068.0309
 21
3651.9072
  0
LINE
  8
_0-3_STR
  6
CONTINUOUS
 62
    7
 10
2368.0309
 20
3456.929
 11
2368.0309
 21
3651.9072
  0
LINE
  8
_0-3_STR
  6
CONTINUOUS
 62
    7
 10
3048.0309
 20
3650.6572
 11
2388.0309
 21
3650.6572
  0
LINE
  8
_0-3_STR
  6
CONTINUOUS
 62
    7
 10
6140.7933
 20
2828.0846
 11
6159.2556
 21
2846.5469
  0
LINE
  8
_0-3_STR
  6
CONTINUOUS
 62
    7
 10
2388.0309
 20
3645.2982
 11
2368.0309
 21
3650.6572
  0
LINE
  8
_0-3_STR
  6
CONTINUOUS
 62
    7
 10
2368.0309
 20
3650.6572
 11
2388.0309
 21
3656.0162
  0
LINE
  8
_0-3_STR
  6
CONTINUOUS
 62
    7
 10
2368.0309
 20
3650.6572
 11
2388.0309
 21
3650.6572
  0
LINE
  8
_0-3_STR
  6
CONTINUOUS
 62
    7
 10
3048.0309
 20
3656.0162
 11
3068.0309
 21
3650.6572
  0
LINE
  8
_0-3_STR
  6
CONTINUOUS
 62
    7
 10
3068.0309
 20
3650.6572
 11
3048.0309
 21
3645.2982
  0
LINE
  8
_0-3_STR
  6
CONTINUOUS
 62
    7
 10
3068.0309
 20
3650.6572
 11
3048.0309
 21
3650.6572
  0
LINE
  8
_0-3_STR
  6
CONTINUOUS
 62
    7
 10
6213.0502
 20
3701.1763
 11
6233.0502
 21
3695.8173
  0
LINE
  8
_0-3_STR
  6
CONTINUOUS
 62
    7
 10
6233.0502
 20
3695.8173
 11
6213.0502
 21
3690.4583
  0
LINE
  8
_0-3_STR
  6
CONTINUOUS
 62
    7
 10
6233.0502
 20
3695.8173
 11
6213.0502
 21
3695.8173
  0
LINE
  8
_0-3_STR
  6
CONTINUOUS
 62
    7
 10
5373.0502
 20
3690.4583
 11
5353.0502
 21
3695.8173
  0
LINE
  8
_0-3_STR
  6
CONTINUOUS
 62
    7
 10
5353.0502
 20
3695.8173
 11
5373.0502
 21
3701.1763
  0
LINE
  8
_0-3_STR
  6
CONTINUOUS
 62
    7
 10
5353.0502
 20
3695.8173
 11
5373.0502
 21
3695.8173
  0
TEXT
  8
_0-3_STR
 62
    7
 10
2156.7322
 20
4646.2329
 40
120
 41
1
 50
0
  1
KYT-8090WH
  0
LINE
  8
_0-3_STR
  6
CONTINUOUS
 62
    7
 10
5343.0502
 20
2014.7454
 11
5343.0502
 21
1832.291
  0
LINE
  8
_0-3_STR
  6
CONTINUOUS
 62
    7
 10
6243.0502
 20
2014.7454
 11
6243.0502
 21
1832.291
  0
LINE
  8
_0-3_STR
  6
CONTINUOUS
 62
    7
 10
5363.0502
 20
1833.541
 11
6223.0502
 21
1833.541
  0
LINE
  8
_0-3_STR
  6
CONTINUOUS
 62
    7
 10
5293.0502
 20
2014.1204
 11
5293.0502
 21
1693.218
  0
LINE
  8
_0-3_STR
  6
CONTINUOUS
 62
    7
 10
6293.0502
 20
2014.1204
 11
6293.0502
 21
1693.218
  0
LINE
  8
_0-3_STR
  6
CONTINUOUS
 62
    7
 10
5313.0502
 20
1694.468
 11
6273.0502
 21
1694.468
  0
LINE
  8
_0-3_STR
  6
CONTINUOUS
 62
    7
 10
6273.0502
 20
1699.827
 11
6293.0502
 21
1694.468
  0
LINE
  8
_0-3_STR
  6
CONTINUOUS
 62
    7
 10
6293.0502
 20
1694.468
 11
6273.0502
 21
1689.109
  0
LINE
  8
_0-3_STR
  6
CONTINUOUS
 62
    7
 10
6293.0502
 20
1694.468
 11
6273.0502
 21
1694.468
  0
LINE
  8
_0-3_STR
  6
CONTINUOUS
 62
    7
 10
5313.0502
 20
1689.109
 11
5293.0502
 21
1694.468
  0
LINE
  8
_0-3_STR
  6
CONTINUOUS
 62
    7
 10
5293.0502
 20
1694.468
 11
5313.0502
 21
1699.827
  0
LINE
  8
_0-3_STR
  6
CONTINUOUS
 62
    7
 10
5293.0502
 20
1694.468
 11
5313.0502
 21
1694.468
  0
LINE
  8
_0-3_STR
  6
CONTINUOUS
 62
    7
 10
6223.0502
 20
1838.9
 11
6243.0502
 21
1833.541
  0
LINE
  8
_0-3_STR
  6
CONTINUOUS
 62
    7
 10
6243.0502
 20
1833.541
 11
6223.0502
 21
1828.182
  0
LINE
  8
_0-3_STR
  6
CONTINUOUS
 62
    7
 10
6243.0502
 20
1833.541
 11
6223.0502
 21
1833.541
  0
LINE
  8
_0-3_STR
  6
CONTINUOUS
 62
    7
 10
5363.0502
 20
1828.182
 11
5343.0502
 21
1833.541
  0
LINE
  8
_0-3_STR
  6
CONTINUOUS
 62
    7
 10
5343.0502
 20
1833.541
 11
5363.0502
 21
1838.9
  0
LINE
  8
_0-3_STR
  6
CONTINUOUS
 62
    7
 10
5343.0502
 20
1833.541
 11
5363.0502
 21
1833.541
  0
LINE
  8
_0-3_STR
  6
CONTINUOUS
 62
    7
 10
5293.0502
 20
2274.3978
 11
6293.0502
 21
2274.3978
  0
LINE
  8
_0-3_STR
  6
CONTINUOUS
 62
    7
 10
6293.0502
 20
2169.569
 11
6168.8271
 21
2169.569
  0
LINE
  8
_0-3_STR
  6
CONTINUOUS
 62
    7
 10
6168.8271
 20
2169.569
 11
6168.8271
 21
2214.1572
  0
LINE
  8
_0-3_STR
  6
CONTINUOUS
 62
    7
 10
6104.2731
 20
2274.3978
 11
6104.2731
 21
2214.1572
  0
LINE
  8
_0-3_STR
  6
CONTINUOUS
 62
    7
 10
6104.2731
 20
2214.1572
 11
6242.7708
 21
2214.1572
  0
LINE
  8
_0-3_STR
  6
CONTINUOUS
 62
    7
 10
6242.7708
 20
2214.1572
 11
6242.7708
 21
2273.9993
  0
LINE
  8
_0-3_STR
  6
CONTINUOUS
 62
    7
 10
5481.8273
 20
2274.3978
 11
5481.8273
 21
2214.1572
  0
LINE
  8
_0-3_STR
  6
CONTINUOUS
 62
    7
 10
5481.8273
 20
2214.1572
 11
5343.3296
 21
2214.1572
  0
LINE
  8
_0-3_STR
  6
CONTINUOUS
 62
    7
 10
5343.3296
 20
2214.1572
 11
5343.3296
 21
2273.9993
  0
LINE
  8
_0-3_STR
  6
CONTINUOUS
 62
    7
 10
5293.0502
 20
2169.569
 11
5417.2733
 21
2169.569
  0
LINE
  8
_0-3_STR
  6
CONTINUOUS
 62
    7
 10
5417.2733
 20
2169.569
 11
5417.2733
 21
2214.1572
  0
LINE
  8
_0-3_STR
  6
CONTINUOUS
 62
    7
 10
5343.0502
 20
2094.0197
 11
6243.0502
 21
2094.0197
  0
LINE
  8
_0-3_STR
  6
CONTINUOUS
 62
    7
 10
5343.0502
 20
2094.0197
 11
5343.0502
 21
2059.0413
  0
LINE
  8
_0-3_STR
  6
CONTINUOUS
 62
    7
 10
6243.0502
 20
2094.0197
 11
6243.0502
 21
2059.0413
  0
LINE
  8
_0-3_STR
  6
CONTINUOUS
 62
    7
 10
5481.8273
 20
2214.1572
 11
5481.8273
 21
2094.0197
  0
LINE
  8
_0-3_STR
  6
CONTINUOUS
 62
    7
 10
5436.1019
 20
2214.1572
 11
5436.1019
 21
2094.0197
  0
LINE
  8
_0-3_STR
  6
CONTINUOUS
 62
    7
 10
6104.2731
 20
2214.1572
 11
6104.2731
 21
2094.0197
  0
LINE
  8
_0-3_STR
  6
CONTINUOUS
 62
    7
 10
6149.9985
 20
2214.1572
 11
6149.9985
 21
2094.0197
  0
LINE
  8
_0-3_STR
  6
CONTINUOUS
 62
    7
 10
5343.0502
 20
2059.0413
 11
6243.0502
 21
2059.0413
  0
LINE
  8
_0-3_STR
  6
CONTINUOUS
 62
    7
 10
5293.0502
 20
2314.8731
 11
5293.0502
 21
2169.569
  0
LINE
  8
_0-3_STR
  6
CONTINUOUS
 62
    7
 10
6293.0502
 20
2314.8731
 11
6293.0502
 21
2169.569
  0
LINE
  8
_0-1_BMK
  6
CENTER2
 62
    1
 10
5793.0502
 20
2314.8731
 11
5793.0502
 21
2059.0413
  0
CIRCLE
  8
_0-3_STR
  6
CONTINUOUS
 62
    7
 10
5793.0502
 20
2186.9572
 40
65.596026
  0
LINE
  8
_0-3_STR
  6
CONTINUOUS
 62
    7
 10
5603.8244
 20
2094.0197
 11
5603.8244
 21
2165.6537
  0
LINE
  8
_0-3_STR
  6
CONTINUOUS
 62
    7
 10
5603.8244
 20
2165.6537
 11
5731.0099
 21
2165.6537
  0
LINE
  8
_0-3_STR
  6
CONTINUOUS
 62
    7
 10
5603.8244
 20
2129.8367
 11
5760.7998
 21
2129.8367
  0
LINE
  8
_0-3_STR
  6
CONTINUOUS
 62
    7
 10
5982.276
 20
2094.0197
 11
5982.276
 21
2165.6537
  0
LINE
  8
_0-3_STR
  6
CONTINUOUS
 62
    7
 10
5982.276
 20
2165.6537
 11
5855.0905
 21
2165.6537
  0
LINE
  8
_0-3_STR
  6
CONTINUOUS
 62
    7
 10
5982.276
 20
2129.8367
 11
5825.3006
 21
2129.8367
  0
LINE
  8
_0-3_STR
  6
CONTINUOUS
 62
    7
 10
5858.6462
 20
2186.9572
 11
5727.4542
 21
2186.9572
  0
LINE
  8
_0-3_STR
  6
CONTINUOUS
 62
    7
 10
5611.613
 20
2274.3978
 11
5611.613
 21
2226.4732
  0
LINE
  8
_0-3_STR
  6
CONTINUOUS
 62
    7
 10
5611.613
 20
2226.4732
 11
5740.6926
 21
2226.4732
  0
LINE
  8
_0-3_STR
  6
CONTINUOUS
 62
    7
 10
5974.4874
 20
2274.3978
 11
5974.4874
 21
2226.4732
  0
LINE
  8
_0-3_STR
  6
CONTINUOUS
 62
    7
 10
5974.4874
 20
2226.4732
 11
5845.4078
 21
2226.4732
  0
LINE
  8
_0-3_STR
  6
CONTINUOUS
 62
    7
 10
5343.0502
 20
2314.3036
 11
5343.0502
 21
2420.0515
  0
LINE
  8
_0-3_STR
  6
CONTINUOUS
 62
    7
 10
5343.0502
 20
2420.0515
 11
5417.2733
 21
2420.0515
  0
LINE
  8
_0-3_STR
  6
CONTINUOUS
 62
    7
 10
5417.2733
 20
2314.8731
 11
5417.2733
 21
2420.0515
  0
LINE
  8
_0-3_STR
  6
CONTINUOUS
 62
    7
 10
5436.1019
 20
2314.8731
 11
5436.1019
 21
2381.4347
  0
LINE
  8
_0-3_STR
  6
CONTINUOUS
 62
    7
 10
5436.1019
 20
2381.4347
 11
5527.4838
 21
2381.4347
  0
LINE
  8
_0-3_STR
  6
CONTINUOUS
 62
    7
 10
5534.8727
 20
2314.8731
 11
5534.8727
 21
2422.8576
  0
LINE
  8
_0-3_STR
  6
CONTINUOUS
 62
    7
 10
5534.8727
 20
2422.8576
 11
5603.9305
 21
2422.8576
  0
LINE
  8
_0-3_STR
  6
CONTINUOUS
 62
    7
 10
5603.9305
 20
2422.8576
 11
5603.9305
 21
2314.8731
  0
LINE
  8
_0-3_STR
  6
CONTINUOUS
 62
    7
 10
5527.4838
 20
2381.4347
 11
5527.4838
 21
2314.8731
  0
LINE
  8
_0-3_STR
  6
CONTINUOUS
 62
    7
 10
6243.0502
 20
2314.3036
 11
6243.0502
 21
2420.0515
  0
LINE
  8
_0-3_STR
  6
CONTINUOUS
 62
    7
 10
6243.0502
 20
2420.0515
 11
6168.8271
 21
2420.0515
  0
LINE
  8
_0-3_STR
  6
CONTINUOUS
 62
    7
 10
6168.8271
 20
2314.8731
 11
6168.8271
 21
2420.0515
  0
LINE
  8
_0-3_STR
  6
CONTINUOUS
 62
    7
 10
6149.9985
 20
2314.8731
 11
6149.9985
 21
2381.4347
  0
LINE
  8
_0-3_STR
  6
CONTINUOUS
 62
    7
 10
6149.9985
 20
2381.4347
 11
6058.6166
 21
2381.4347
  0
LINE
  8
_0-3_STR
  6
CONTINUOUS
 62
    7
 10
6051.2277
 20
2314.8731
 11
6051.2277
 21
2422.8576
  0
LINE
  8
_0-3_STR
  6
CONTINUOUS
 62
    7
 10
6051.2277
 20
2422.8576
 11
5982.17
 21
2422.8576
  0
LINE
  8
_0-3_STR
  6
CONTINUOUS
 62
    7
 10
6058.6166
 20
2381.4347
 11
6058.6166
 21
2314.8731
  0
LINE
  8
_0-1_BMK
  6
CENTER2
 62
    1
 10
5569.4016
 20
2422.8576
 11
5569.4016
 21
2171.7298
  0
LINE
  8
_0-1_BMK
  6
CENTER2
 62
    1
 10
6016.6988
 20
2422.8576
 11
6016.6988
 21
2171.7298
  0
LINE
  8
_0-1_BMK
  6
CENTER2
 62
    1
 10
5380.1617
 20
2420.0515
 11
5380.1617
 21
2168.9238
  0
LINE
  8
_0-1_BMK
  6
CENTER2
 62
    1
 10
6205.9387
 20
2420.0515
 11
6205.9387
 21
2168.9238
  0
LINE
  8
_0-0_0
  6
CONTINUOUS
 62
    4
 10
6464.0878
 20
2984.0496
 11
6464.0878
 21
2059.0496
  0
LINE
  8
_0-0_0
  6
CONTINUOUS
 62
    4
 10
6464.0878
 20
2984.0496
 11
6471.8524
 21
2955.0719
  0
LINE
  8
_0-0_0
  6
CONTINUOUS
 62
    4
 10
6464.0878
 20
2984.0496
 11
6456.3233
 21
2955.0719
  0
LINE
  8
_0-0_0
  6
CONTINUOUS
 62
    4
 10
6464.0878
 20
2059.0496
 11
6471.8524
 21
2088.0274
  0
LINE
  8
_0-0_0
  6
CONTINUOUS
 62
    4
 10
6464.0878
 20
2059.0496
 11
6456.3233
 21
2088.0274
  0
LINE
  8
_0-0_0
  6
CONTINUOUS
 62
    4
 10
6464.0878
 20
2984.0496
 11
6472.9223
 21
2984.0496
  0
LINE
  8
_0-3_STR
  6
CONTINUOUS
 62
    7
 10
5715.8464
 20
2644.5615
 11
5870.254
 21
2644.5615
  0
LINE
  8
ADD_LINE
  6
DOT
 62
    1
 10
5598.3119
 20
2475.1854
 11
3976.3073
 21
2475.1854
  0
LINE
  8
_0-0_0
  6
CONTINUOUS
 62
    4
 10
3771.3481
 20
2984.0496
 11
3771.3481
 21
2059.0496
  0
LINE
  8
_0-0_0
  6
CONTINUOUS
 62
    4
 10
3771.3481
 20
2984.0496
 11
3779.1126
 21
2955.0719
  0
LINE
  8
_0-0_0
  6
CONTINUOUS
 62
    4
 10
3771.3481
 20
2984.0496
 11
3763.5835
 21
2955.0719
  0
LINE
  8
_0-0_0
  6
CONTINUOUS
 62
    4
 10
3771.3481
 20
2984.0496
 11
3817.2872
 21
2984.0496
  0
TEXT
  8
_0-0_0
 62
    7
 10
3756.3481
 20
2457.7996
 40
75
 41
1
 50
90
  1
925
  0
LINE
  8
_0-1_BMK
  6
CENTER2
 62
    1
 10
2584.7378
 20
2239.7846
 11
2584.7378
 21
1972.4238
  0
LINE
  8
_0-3_STR
  6
CONTINUOUS
 62
    7
 10
2879.5161
 20
2318.1961
 11
3037.6768
 21
2318.1961
  0
LINE
  8
_0-3_STR
  6
CONTINUOUS
 62
    7
 10
2525.0309
 20
2318.1961
 11
2525.0309
 21
2062.3644
  0
LINE
  8
_0-3_STR
  6
CONTINUOUS
 62
    7
 10
2525.0309
 20
2062.3644
 11
3325.0309
 21
2062.3644
  0
LINE
  8
_0-3_STR
  6
CONTINUOUS
 62
    7
 10
3325.0309
 20
2062.3644
 11
3325.0309
 21
2318.1961
  0
LINE
  8
_0-3_STR
  6
CONTINUOUS
 62
    7
 10
3325.0309
 20
2318.1961
 11
2525.0309
 21
2318.1961
  0
LINE
  8
_0-3_STR
  6
CONTINUOUS
 62
    7
 10
2470.342
 20
2309.3995
 11
2470.342
 21
2071.161
  0
LINE
  8
_0-3_STR
  6
CONTINUOUS
 62
    7
 10
2470.342
 20
2071.161
 11
2525.0309
 21
2071.161
  0
LINE
  8
_0-3_STR
  6
CONTINUOUS
 62
    7
 10
2470.342
 20
2309.3995
 11
2525.0309
 21
2309.3995
  0
LINE
  8
_0-3_STR
  6
CONTINUOUS
 62
    7
 10
2368.0309
 20
2250.6393
 11
2470.342
 21
2250.6393
  0
LINE
  8
_0-3_STR
  6
CONTINUOUS
 62
    7
 10
2368.0309
 20
2250.6393
 11
2368.0309
 21
2203.2834
  0
LINE
  8
_0-3_STR
  6
CONTINUOUS
 62
    7
 10
2368.0309
 20
2203.2834
 11
2470.342
 21
2203.2834
  0
LINE
  8
_0-3_STR
  6
CONTINUOUS
 62
    7
 10
2368.0309
 20
2091.3511
 11
2470.342
 21
2091.3511
  0
LINE
  8
_0-3_STR
  6
CONTINUOUS
 62
    7
 10
2368.0309
 20
2138.7071
 11
2368.0309
 21
2091.3511
  0
LINE
  8
_0-3_STR
  6
CONTINUOUS
 62
    7
 10
2368.0309
 20
2138.7071
 11
2470.342
 21
2138.7071
  0
LINE
  8
_0-3_STR
  6
CONTINUOUS
 62
    7
 10
2525.0309
 20
2277.7209
 11
3325.0309
 21
2277.7209
  0
LINE
  8
_0-3_STR
  6
CONTINUOUS
 62
    7
 10
2525.0309
 20
2102.8396
 11
3325.0309
 21
2102.8396
  0
LINE
  8
_0-3_STR
  6
CONTINUOUS
 62
    7
 10
2525.0309
 20
2146.6682
 11
3325.0309
 21
2146.6682
  0
LINE
  8
_0-3_STR
  6
CONTINUOUS
 62
    7
 10
3325.0309
 20
2292.3644
 11
4625.0309
 21
2292.3644
  0
LINE
  8
_0-3_STR
  6
CONTINUOUS
 62
    7
 10
4625.0309
 20
2292.3644
 11
4625.0309
 21
2062.3644
  0
LINE
  8
_0-3_STR
  6
CONTINUOUS
 62
    7
 10
4625.0309
 20
2062.3644
 11
3325.0309
 21
2062.3644
  0
LINE
  8
_0-3_STR
  6
CONTINUOUS
 62
    7
 10
4626.421
 20
2238.1648
 11
3325.0309
 21
2238.1648
  0
LINE
  8
_0-3_STR
  6
CONTINUOUS
 62
    7
 10
4626.421
 20
2116.5639
 11
3325.0309
 21
2116.5639
  0
LINE
  8
_0-3_STR
  6
CONTINUOUS
 62
    7
 10
4228.6559
 20
2292.3644
 11
4387.9659
 21
2292.3644
  0
LINE
  8
_0-3_STR
  6
CONTINUOUS
 62
    7
 10
4228.6559
 20
2062.3644
 11
4387.9659
 21
2062.3644
  0
LINE
  8
_0-3_STR
  6
CONTINUOUS
 62
    7
 10
4386.7159
 20
2272.3644
 11
4386.7159
 21
2082.3644
  0
LINE
  8
_0-3_STR
  6
CONTINUOUS
 62
    7
 10
3325.0309
 20
2031.1144
 11
3325.0309
 21
1805.4129
  0
LINE
  8
_0-3_STR
  6
CONTINUOUS
 62
    7
 10
4625.0309
 20
2031.1144
 11
4625.0309
 21
1805.4129
  0
LINE
  8
_0-3_STR
  6
CONTINUOUS
 62
    7
 10
3345.0309
 20
1806.6629
 11
4605.0309
 21
1806.6629
  0
LINE
  8
_0-3_STR
  6
CONTINUOUS
 62
    7
 10
2525.0309
 20
2031.7394
 11
2525.0309
 21
1805.4129
  0
LINE
  8
_0-3_STR
  6
CONTINUOUS
 62
    7
 10
3325.0309
 20
2031.7394
 11
3325.0309
 21
1805.4129
  0
LINE
  8
_0-3_STR
  6
CONTINUOUS
 62
    7
 10
2545.0309
 20
1806.6629
 11
3305.0309
 21
1806.6629
  0
LINE
  8
_0-3_STR
  6
CONTINUOUS
 62
    7
 10
2368.0309
 20
2031.1144
 11
2368.0309
 21
1805.4129
  0
LINE
  8
_0-3_STR
  6
CONTINUOUS
 62
    7
 10
2525.0309
 20
2031.1144
 11
2525.0309
 21
1805.4129
  0
LINE
  8
_0-3_STR
  6
CONTINUOUS
 62
    7
 10
2388.0309
 20
1806.6629
 11
2505.0309
 21
1806.6629
  0
LINE
  8
_0-3_STR
  6
CONTINUOUS
 62
    7
 10
2368.0309
 20
2031.7394
 11
2368.0309
 21
1702.8599
  0
LINE
  8
_0-3_STR
  6
CONTINUOUS
 62
    7
 10
4625.0309
 20
2031.7394
 11
4625.0309
 21
1702.8599
  0
LINE
  8
_0-3_STR
  6
CONTINUOUS
 62
    7
 10
3625.6684
 20
2062.3644
 11
3845.4046
 21
2062.3644
  0
LINE
  8
_0-3_STR
  6
CONTINUOUS
 62
    7
 10
4605.0309
 20
1709.4689
 11
4625.0309
 21
1704.1099
  0
LINE
  8
_0-3_STR
  6
CONTINUOUS
 62
    7
 10
4625.0309
 20
1704.1099
 11
4605.0309
 21
1698.7509
  0
LINE
  8
_0-3_STR
  6
CONTINUOUS
 62
    7
 10
4625.0309
 20
1704.1099
 11
4605.0309
 21
1704.1099
  0
LINE
  8
_0-3_STR
  6
CONTINUOUS
 62
    7
 10
2388.0309
 20
1698.7509
 11
2368.0309
 21
1704.1099
  0
LINE
  8
_0-3_STR
  6
CONTINUOUS
 62
    7
 10
2368.0309
 20
1704.1099
 11
2388.0309
 21
1709.4689
  0
LINE
  8
_0-3_STR
  6
CONTINUOUS
 62
    7
 10
2368.0309
 20
1704.1099
 11
2388.0309
 21
1704.1099
  0
LINE
  8
_0-3_STR
  6
CONTINUOUS
 62
    7
 10
2505.0309
 20
1812.0219
 11
2525.0309
 21
1806.6629
  0
LINE
  8
_0-3_STR
  6
CONTINUOUS
 62
    7
 10
2525.0309
 20
1806.6629
 11
2505.0309
 21
1801.3039
  0
LINE
  8
_0-3_STR
  6
CONTINUOUS
 62
    7
 10
2525.0309
 20
1806.6629
 11
2505.0309
 21
1806.6629
  0
LINE
  8
_0-3_STR
  6
CONTINUOUS
 62
    7
 10
2388.0309
 20
1801.3039
 11
2368.0309
 21
1806.6629
  0
LINE
  8
_0-3_STR
  6
CONTINUOUS
 62
    7
 10
2368.0309
 20
1806.6629
 11
2388.0309
 21
1812.0219
  0
LINE
  8
_0-3_STR
  6
CONTINUOUS
 62
    7
 10
2368.0309
 20
1806.6629
 11
2388.0309
 21
1806.6629
  0
LINE
  8
_0-3_STR
  6
CONTINUOUS
 62
    7
 10
3305.0309
 20
1812.0219
 11
3325.0309
 21
1806.6629
  0
LINE
  8
_0-3_STR
  6
CONTINUOUS
 62
    7
 10
3325.0309
 20
1806.6629
 11
3305.0309
 21
1801.3039
  0
LINE
  8
_0-3_STR
  6
CONTINUOUS
 62
    7
 10
3325.0309
 20
1806.6629
 11
3305.0309
 21
1806.6629
  0
LINE
  8
_0-3_STR
  6
CONTINUOUS
 62
    7
 10
2545.0309
 20
1801.3039
 11
2525.0309
 21
1806.6629
  0
LINE
  8
_0-3_STR
  6
CONTINUOUS
 62
    7
 10
2525.0309
 20
1806.6629
 11
2545.0309
 21
1812.0219
  0
LINE
  8
_0-3_STR
  6
CONTINUOUS
 62
    7
 10
2525.0309
 20
1806.6629
 11
2545.0309
 21
1806.6629
  0
LINE
  8
_0-3_STR
  6
CONTINUOUS
 62
    7
 10
4605.0309
 20
1812.0219
 11
4625.0309
 21
1806.6629
  0
LINE
  8
_0-3_STR
  6
CONTINUOUS
 62
    7
 10
4625.0309
 20
1806.6629
 11
4605.0309
 21
1801.3039
  0
LINE
  8
_0-3_STR
  6
CONTINUOUS
 62
    7
 10
4625.0309
 20
1806.6629
 11
4605.0309
 21
1806.6629
  0
LINE
  8
_0-3_STR
  6
CONTINUOUS
 62
    7
 10
3345.0309
 20
1801.3039
 11
3325.0309
 21
1806.6629
  0
LINE
  8
_0-3_STR
  6
CONTINUOUS
 62
    7
 10
3325.0309
 20
1806.6629
 11
3345.0309
 21
1812.0219
  0
LINE
  8
_0-3_STR
  6
CONTINUOUS
 62
    7
 10
3325.0309
 20
1806.6629
 11
3345.0309
 21
1806.6629
  0
LINE
  8
_0-3_STR
  6
CONTINUOUS
 62
    7
 10
4392.0748
 20
2082.3644
 11
4386.7159
 21
2062.3644
  0
LINE
  8
_0-3_STR
  6
CONTINUOUS
 62
    7
 10
4386.7159
 20
2062.3644
 11
4381.3569
 21
2082.3644
  0
LINE
  8
_0-3_STR
  6
CONTINUOUS
 62
    7
 10
4386.7159
 20
2062.3644
 11
4386.7159
 21
2082.3644
  0
LINE
  8
_0-3_STR
  6
CONTINUOUS
 62
    7
 10
4381.3569
 20
2272.3644
 11
4386.7159
 21
2292.3644
  0
LINE
  8
_0-3_STR
  6
CONTINUOUS
 62
    7
 10
4386.7159
 20
2292.3644
 11
4392.0748
 21
2272.3644
  0
LINE
  8
_0-3_STR
  6
CONTINUOUS
 62
    7
 10
4386.7159
 20
2292.3644
 11
4386.7159
 21
2272.3644
  0
LINE
  8
_0-3_STR
  6
CONTINUOUS
 62
    7
 10
2779.148
 20
2317.8712
 11
2811.4359
 21
2350.1591
  0
LINE
  8
_0-3_STR
  6
CONTINUOUS
 62
    7
 10
2833.0295
 20
2317.8712
 11
2865.3175
 21
2350.1591
  0
LINE
  8
_0-3_STR
  6
CONTINUOUS
 62
    7
 10
2886.911
 20
2317.8712
 11
2919.199
 21
2350.1591
  0
LINE
  8
_0-3_STR
  6
CONTINUOUS
 62
    7
 10
2940.7926
 20
2317.8712
 11
2973.0805
 21
2350.1591
  0
LINE
  8
_0-3_STR
  6
CONTINUOUS
 62
    7
 10
2545.9644
 20
2417.6168
 11
2623.5112
 21
2417.6168
  0
LINE
  8
_0-3_STR
  6
CONTINUOUS
 62
    7
 10
2545.9644
 20
2417.6168
 11
2545.9644
 21
2317.8257
  0
LINE
  8
_0-3_STR
  6
CONTINUOUS
 62
    7
 10
2623.5112
 20
2417.6168
 11
2623.5112
 21
2317.8257
  0
LINE
  8
_0-3_STR
  6
CONTINUOUS
 62
    7
 10
2577.8306
 20
2798.6266
 11
2721.3555
 21
2798.6266
  0
LINE
  8
_0-3_STR
  6
CONTINUOUS
 62
    7
 10
2999.629
 20
2713.2666
 11
3037.6768
 21
2751.3144
  0
LINE
  8
_0-3_STR
  6
CONTINUOUS
 62
    7
 10
2998.5707
 20
2610.879
 11
3037.6768
 21
2649.9851
  0
LINE
  8
_0-3_STR
  6
CONTINUOUS
 62
    7
 10
2998.5707
 20
2503.1159
 11
3037.6768
 21
2542.222
  0
LINE
  8
_0-3_STR
  6
CONTINUOUS
 62
    7
 10
2998.5707
 20
2549.501
 11
3037.6768
 21
2588.6071
  0
LINE
  8
_0-3_STR
  6
CONTINUOUS
 62
    7
 10
2998.5707
 20
2436.8243
 11
3037.6768
 21
2475.9304
  0
LINE
  8
_0-3_STR
  6
CONTINUOUS
 62
    7
 10
2998.5707
 20
2382.9428
 11
3037.6768
 21
2422.0488
  0
LINE
  8
_0-3_STR
  6
CONTINUOUS
 62
    7
 10
2998.5707
 20
2329.0612
 11
3037.6768
 21
2368.1673
  0
LINE
  8
_0-3_STR
  6
CONTINUOUS
 62
    7
 10
2879.5161
 20
2350.6216
 11
2997.9735
 21
2350.6216
  0
LINE
  8
_0-1_BMK
  6
CENTER2
 62
    1
 10
2419.1865
 20
1983.3883
 11
2419.1865
 21
2329.2676
  0
LINE
  8
_0-0_0
  6
CONTINUOUS
 62
    7
 10
2721.3555
 20
2642.182
 11
2580.2701
 21
2642.182
  0
LINE
  8
_0-3_STR
  6
CONTINUOUS
 62
    7
 10
2721.3555
 20
2843.1978
 11
2721.3555
 21
2318.2393
  0
LINE
  8
_0-3_STR
  6
CONTINUOUS
 62
    7
 10
2577.8306
 20
2605.8875
 11
2577.8306
 21
3366.5256
  0
LINE
  8
_0-0_0
  6
CONTINUOUS
 62
    7
 10
2719.8644
 20
2605.8875
 11
2577.8306
 21
2605.8875
  0
LINE
  8
_0-3_STR
  6
CONTINUOUS
 62
    7
 10
2879.5161
 20
2531.5038
 11
2805.1938
 21
2531.5038
  0
LINE
  8
_0-3_STR
  6
CONTINUOUS
 62
    7
 10
2879.5161
 20
2531.5038
 11
2953.8384
 21
2531.5038
  0
LINE
  8
_0-3_STR
  6
CONTINUOUS
 62
    7
 10
2998.5707
 20
2509.6995
 11
2953.8384
 21
2509.6995
  0
LINE
  8
_0-3_STR
  6
CONTINUOUS
 62
    7
 10
2760.4615
 20
2511.2504
 11
2805.1938
 21
2511.2504
  0
LINE
  8
_0-3_STR
  6
CONTINUOUS
 62
    7
 10
2879.5161
 20
3438.2088
 11
2879.5161
 21
2533.2039
  0
LINE
  8
_0-3_STR
  6
CONTINUOUS
 62
    7
 10
2805.1938
 20
3460.0131
 11
2805.1938
 21
2512.8464
  0
LINE
  8
_0-3_STR
  6
CONTINUOUS
 62
    7
 10
2953.8384
 20
3460.0131
 11
2953.8384
 21
2510.8107
  0
TEXT
  8
_0-3_STR
 62
    7
 10
2394.3261
 20
1812.5482
 40
75
 41
1
 50
0
  1
157
  0
TEXT
  8
_0-3_STR
 62
    4
 10
4385.29
 20
2130.1253
 40
60
 41
1
 50
90
  1
230
  0
LINE
  8
_0-0_0
  6
CONTINUOUS
 62
    4
 10
6396.6115
 20
2059.0496
 11
6583.9006
 21
2059.0496
  0
LINE
  8
_0-0_0
  6
CONTINUOUS
 62
    4
 10
6690.0614
 20
3454.9461
 11
6690.0614
 21
2054.9461
  0
LINE
  8
_0-0_0
  6
CONTINUOUS
 62
    4
 10
6690.0614
 20
3454.9461
 11
6697.826
 21
3425.9684
  0
LINE
  8
_0-0_0
  6
CONTINUOUS
 62
    4
 10
6690.0614
 20
3454.9461
 11
6682.2968
 21
3425.9684
  0
LINE
  8
_0-0_0
  6
CONTINUOUS
 62
    4
 10
6690.0614
 20
2054.9461
 11
6697.826
 21
2083.9239
  0
LINE
  8
_0-0_0
  6
CONTINUOUS
 62
    4
 10
6690.0614
 20
2054.9461
 11
6682.2968
 21
2083.9239
  0
LINE
  8
_0-0_0
  6
CONTINUOUS
 62
    4
 10
6690.0614
 20
3454.9461
 11
6636.2511
 21
3454.9461
  0
LINE
  8
_0-0_0
  6
CONTINUOUS
 62
    4
 10
6690.0614
 20
2054.9461
 11
6636.2511
 21
2054.9461
  0
TEXT
  8
_0-0_0
 62
    7
 10
6687.499
 20
2665.7279
 40
75
 41
1
 50
90
  1
1400
  0
TEXT
  8
_0-0_0
 62
    7
 10
6462.0081
 20
2453.0489
 40
75
 41
1
 50
90
  1
925
  0
TEXT
  8
_0-3_STR
 62
    7
 10
5726.6001
 20
1835.5113
 40
75
 41
1
 50
0
  1
900
  0
TEXT
  8
_0-3_STR
 62
    7
 10
5688.1642
 20
1694.5794
 40
75
 41
1
 50
0
  1
1000
  0
LINE
  8
_0-0_0
  6
CONTINUOUS
 62
    7
 10
5605.6699
 20
2320.1526
 11
5605.6699
 21
2471.9537
  0
LINE
  8
_0-0_0
  6
CONTINUOUS
 62
    7
 10
5350.9474
 20
2687.2122
 11
5605.6699
 21
2471.9537
  0
LINE
  8
_0-3_STR
  6
CONTINUOUS
 62
    7
 10
5716.8016
 20
2314.2904
 11
5717.9468
 21
2315.4355
  0
LINE
  8
_0-3_STR
  6
CONTINUOUS
 62
    7
 10
2722.7529
 20
2847.1764
 11
2761.859
 21
2847.1764
  0
LINE
  8
_0-3_STR
  6
CONTINUOUS
 62
    7
 10
2722.7529
 20
2820.6009
 11
2749.3284
 21
2847.1764
  0
LINE
  8
_0-3_STR
  6
CONTINUOUS
 62
    7
 10
2722.7529
 20
2766.7193
 11
2761.859
 21
2805.8254
  0
LINE
  8
_0-3_STR
  6
CONTINUOUS
 62
    7
 10
2722.7529
 20
2658.9563
 11
2761.859
 21
2698.0623
  0
LINE
  8
_0-3_STR
  6
CONTINUOUS
 62
    7
 10
2723.8111
 20
2713.896
 11
2761.859
 21
2751.9439
  0
LINE
  8
_0-3_STR
  6
CONTINUOUS
 62
    7
 10
2722.7529
 20
2611.5085
 11
2761.859
 21
2650.6145
  0
LINE
  8
_0-3_STR
  6
CONTINUOUS
 62
    7
 10
2722.7529
 20
2503.7454
 11
2761.859
 21
2542.8515
  0
LINE
  8
_0-3_STR
  6
CONTINUOUS
 62
    7
 10
2722.7529
 20
2550.1305
 11
2761.859
 21
2589.2365
  0
LINE
  8
_0-3_STR
  6
CONTINUOUS
 62
    7
 10
2722.7529
 20
2437.4538
 11
2761.859
 21
2476.5598
  0
LINE
  8
_0-3_STR
  6
CONTINUOUS
 62
    7
 10
2722.7529
 20
2383.5722
 11
2761.859
 21
2422.6783
  0
LINE
  8
_0-3_STR
  6
CONTINUOUS
 62
    7
 10
2722.7529
 20
2329.6907
 11
2761.859
 21
2368.7968
  0
LINE
  8
_0-3_STR
  6
CONTINUOUS
 62
    7
 10
2761.859
 20
2847.1764
 11
2761.859
 21
2351.328
  0
LINE
  8
_0-3_STR
  6
CONTINUOUS
 62
    7
 10
2998.4792
 20
2350.6216
 11
2761.8528
 21
2350.6216
  0
LINE
  8
_0-3_STR
  6
CONTINUOUS
 62
    7
 10
2998.5707
 20
3460.0131
 11
2998.5707
 21
2354.1616
  0
LINE
  8
_0-0_0
  6
CONTINUOUS
 62
    7
 10
5356.8123
 20
2749.1016
 11
5441.0309
 21
2833.3202
  0
LINE
  8
_0-0_0
  6
CONTINUOUS
 62
    7
 10
5358.8664
 20
2695.6946
 11
5458.4909
 21
2795.3191
  0
LINE
  8
_0-0_0
  6
CONTINUOUS
 62
    7
 10
5383.5157
 20
2666.937
 11
5481.0861
 21
2764.5074
  0
LINE
  8
_0-0_0
  6
CONTINUOUS
 62
    7
 10
5443.085
 20
2611.476
 11
5533.466
 21
2701.857
  0
LINE
  8
_0-0_0
  6
CONTINUOUS
 62
    7
 10
5506.7626
 20
2562.1773
 11
5599.1977
 21
2654.6124
  0
LINE
  8
_0-0_0
  6
CONTINUOUS
 62
    7
 10
5543.7366
 20
2531.3656
 11
5644.3882
 21
2632.0171
  0
LINE
  8
_0-0_0
  6
CONTINUOUS
 62
    7
 10
5611.5223
 20
2463.5798
 11
5754.2832
 21
2606.3407
  0
LINE
  8
_0-0_0
  6
CONTINUOUS
 62
    7
 10
5605.2233
 20
2388.8828
 11
5819.4601
 21
2603.1197
  0
LINE
  8
_0-0_0
  6
CONTINUOUS
 62
    7
 10
5605.2233
 20
2325.6745
 11
5897.2119
 21
2617.6632
  0
LINE
  8
_0-0_0
  6
CONTINUOUS
 62
    7
 10
5659.4817
 20
2322.3183
 11
6000.6945
 21
2663.5311
  0
LINE
  8
_0-0_0
  6
CONTINUOUS
 62
    7
 10
5718.7744
 20
2322.3183
 11
6231.992
 21
2835.5359
  0
LINE
  8
_0-0_0
  6
CONTINUOUS
 62
    7
 10
5778.6265
 20
2322.3183
 11
6233.1107
 21
2776.8026
  0
LINE
  8
_0-0_0
  6
CONTINUOUS
 62
    7
 10
5845.1909
 20
2321.1996
 11
5980.837
 21
2456.8457
  0
LINE
  8
_0-0_0
  6
CONTINUOUS
 62
    7
 10
5919.5865
 20
2321.759
 11
5980.5573
 21
2382.7298
  0
LINE
  8
_0-0_0
  6
CONTINUOUS
 62
    7
 10
5471.8426
 20
2584.7725
 11
5565.8859
 21
2678.8158
  0
LINE
  8
_0-0_0
  6
CONTINUOUS
 62
    7
 10
5412.2733
 20
2640.2336
 11
5505.5739
 21
2733.5341
  0
LINE
  8
_0-0_0
  6
CONTINUOUS
 62
    7
 10
5576.6024
 20
2500.5539
 11
5693.3777
 21
2617.3291
  0
LINE
  8
_0-0_0
  6
CONTINUOUS
 62
    7
 10
5354.7582
 20
2794.2921
 11
5406.4994
 21
2846.0334
  0
LINE
  8
_0-0_0
  6
CONTINUOUS
 62
    7
 10
5606.342
 20
2318.4028
 11
5978.8792
 21
2318.4028
  0
LINE
  8
_0-3_STR
  6
CONTINUOUS
 62
    7
 10
5983.3542
 20
2421.6192
 11
5983.3542
 21
2313.6347
  0
TEXT
  8
_0-3_STR
 62
    7
 10
5749.5395
 20
3697.7974
 40
75
 41
1
 50
0
  1
880
  0
TEXT
  8
_0-3_STR
 62
    7
 10
2657.3685
 20
3653.0482
 40
75
 41
1
 50
0
  1
700
  0
TEXT
  8
_0-3_STR
 62
    7
 10
3874.5473
 20
1809.3804
 40
75
 41
1
 50
0
  1
1300
  0
TEXT
  8
_0-3_STR
 62
    7
 10
2867.6899
 20
1804.9055
 40
75
 41
1
 50
0
  1
800
  0
TEXT
  8
_0-3_STR
 62
    7
 10
3377.8309
 20
1706.4572
 40
75
 41
1
 50
0
  1
2257
  0
LINE
  8
_0-0_0
  6
CONTINUOUS
 62
    7
 10
5978.8792
 20
2472.6826
 11
5978.8792
 21
2318.4028
  0
LINE
  8
_0-0_0
  6
CONTINUOUS
 62
    7
 10
5979.8218
 20
2473.9184
 11
6230.6877
 21
2688.9463
  0
LINE
  8
_0-0_0
  6
CONTINUOUS
 62
    7
 10
6113.2874
 20
2587.6113
 11
6229.4519
 21
2703.7759
  0
ENDSEC
  0
EOF
